Song name
# A B C D E F G H I J K L M N O P Q R S T U V W X Y Z

Coldplay - Life In Technicolor tab

Song: Life In Technicolor
Artist: Coldplay
Album: Viva La Vida
Tabbed by: Jared Lindstrom (jadex2009@hotmail.com)
Date Tabbed: 06-06-08



    F#m            Dsus2
E[-------------0--------------2-2-0----------------]
B[-----0----2-----------0--------------------------]
G[--2----2--------2---2---2----------2-------------]
D[-------------------------------------------------]
A[-------------------------------------------------]
E[-------------------------------------------------]


    A
E[-------------0--------------4-4-0----------------]
B[-----0----2-----------0--------------------------]
G[--2----2--------2---2---2----------2-------------]
D[-------------------------------------------------]
A[-------------------------------------------------]
E[-------------------------------------------------]
Tap to rate this tab
 
# A B C D E F G H I J K L M N O P Q R S T U V W X Y Z