Song name
# A B C D E F G H I J K L M N O P Q R S T U V W X Y Z

Coldplay - Strawberry Swing tab

THIS IS STRAWBERRY SWING

I BELIEVE THIS IS EXACT
LISTEN TO SONG FOR EXACT TIMING

ENJOY
SORRY ITS JUST AN INTRO


e|--11--13-13/16-16-16-13---------------------|-6--8/11-11-11--8--------|
B|-----------------------16-------------------|-----------------11------|
G|------------------------13------------------|-------------------9-----|
D|--------------------------15----------------|--------------------10---|
A|--------------------------------------------|-------------------------|
E|--------------------------------------------|-------------------------|

e|-6--8/11-11-11--8--------|
B|-----------------11------|
G|-------------------9-----|
D|--------------------10---|
A|-------------------------|
E|-------------------------|

E|--11--13-13/16-16-16-13---------------------|
B|-----------------------16-------------------|
G|------------------------13------------------|  X2
D|--------------------------15----------------|
A|--------------------------------------------|
E|--------------------------------------------|

E|-6--8/11-11-11--8---------------------------|
B|-----------------11-------------------------|
G|-------------------9------------------------|  X2
D|--------------------10----------------------|
A|--------------------------------------------|
E|--------------------------------------------|


LAST TWO REPEAT THRU ENTIRE SONG

Tap to rate this tab
 
# A B C D E F G H I J K L M N O P Q R S T U V W X Y Z