Song name
# A B C D E F G H I J K L M N O P Q R S T U V W X Y Z

Coldplay - Death And All His Friends tab

Song: Death and All His Friends
Artist: Coldplay
Album: Viva La Vida
Tabbed by: Jared Lindstrom (jadex2009@hotmail.com)
Date Tabbed: 06-14-08


E[-15---------------------------------------------------]
B[----16------------------------------------------------]
G[--------------15--------------------------------------]
D[---------17--------15--17-17-17-15--------------------]
A[------------------------------------18~---------15~---]
E[------------------------------------------------------]

E[-15---------------------------------------------------]
B[----16------------------------------------------------]
G[---------17--19^20------------------------------------]
D[----------------------15--17-17-17-15-----------------]
A[--------------------------------------18--16~--15~----]
E[------------------------------------------------------]


E[------------------------------------------------------]
B[------------------------------------------------------]
G[------------------------------------------------------]
D[-8--8--6-5-8-8-6-5-8-8-6-5--8--5--8--5--6--5--8-8-6-5-]
A[------------------------------------------------------]
E[------------------------------------------------------]
                                                          3x
E[------------------------------------------------------]
B[------------------------------------------------------]
G[----------------------------5-----5-------------------]
D[-8--8--6-5-8-8-6-5-8-8-6-5-----5-----5--6--5--8-8-6-5-]
A[------------------------------------------------------]
E[------------------------------------------------------]

E[------------------------------------------------------]
B[------------------------------------------------------]
G[------------------------------------------------------]
D[-10-10-10-10-10-10-10-10-8-8-8-8-8-8-8-8--------------]
A[-10-10-10-10-10-10-10-10-8-8-8-8-8-8-8-8--------------]
E[-8--8--8--8--8--8--8--8--6-6-6-6-6-6-6-6--------------] 2x
(Don't play this part the first time through)


E[------------------------------------------------------]
B[-15-15-13-13--13-13-13--16-16-15-15--15-15-15---------]
G[------------------------------------------------------]
D[------------------------------------------------------]
A[------------------------------------------------------]
E[------------------------------------------------------]

E[-------15-15--15-15-15-----------------------------------]
B[-16-18------------------15-15--13-13--13-13-13--15^16^15-]
G[---------------------------------------------------------]
D[---------------------------------------------------------]
A[---------------------------------------------------------]
E[---------------------------------------------------------]

E[------------------------------------------------------]
B[-13-13--13-13-13--16-16-15-15--15-15-15--16-18--------]
G[------------------------------------------------------]
D[------------------------------------------------------]
A[------------------------------------------------------]
E[------------------------------------------------------]

E[-15-15--15-15-15--------------------------------------]
B[------------------15-15--13-13--13-13-13--15^16^15----]
G[------------------------------------------------------]
D[------------------------------------------------------]
A[------------------------------------------------------]
E[------------------------------------------------------]

E[------------------------------------------------------]
B[-13-13--13-13-13--16-16-15-15--15-15-15--16-18--------]
G[------------------------------------------------------]
D[------------------------------------------------------]
A[------------------------------------------------------]
E[------------------------------------------------------]

E[-15-15--15-15-15--------------------------------------]
B[------------------15-15--13-13--13-13-13--15^16^15----]
G[------------------------------------------------------]
D[------------------------------------------------------]
A[------------------------------------------------------]
E[------------------------------------------------------]

E[------------------------------------------------------]
B[-13-13--13-13-13--16-16-15-15--15-15-15--16-18--------]
G[------------------------------------------------------]
D[------------------------------------------------------]
A[------------------------------------------------------]
E[------------------------------------------------------]

E[-15-15--15-15-15-----------------------------------------]
B[------------------15-15--13-13--13-13-13--15^16^15--13~--]
G[---------------------------------------------------------]
D[---------------------------------------------------------]
A[---------------------------------------------------------]
E[---------------------------------------------------------]


So that's about the gist of it. Just play along with the song and you'll get the hang of 
I'm sure. Play safe! Thanks!
Tap to rate this tab
# A B C D E F G H I J K L M N O P Q R S T U V W X Y Z