Song name
# A B C D E F G H I J K L M N O P Q R S T U V W X Y Z

Coldplay - Beautiful World tab

Chorus:
e---5-5-5-5-5-5-5-5-7-7-7-7-8-8-8-8------------5-5-5-5---8-8--7-----5--------|
b-----------------------------------------------5-5-5-5-5-5-5-5---5-5-----5--|
g----------------------------------------------------------------------------|
d----------------------------------------------------------------------------|
a----------------------------------------------------------------------------|
e----------------------------------------------------------------------------|

e---5-5-5-5-5-5-5-5-7-7-7-7-8-8-8-8---------5-----------------------5-----------------|
b------------------------------------------------5h6------5h6---5----5h6-----5h6---5--|
g-------------------------------------------------------------------------------------|
d-------------------------------------------------------------------------------------|
a-------------------------------------------------------------------------------------|
e-------------------------------------------------------------------------------------|

Solo
e----------------------------------------------------------|
b---5----8--6--5h6--5----8--6--5-------------5-------------|
g------------------------------------------7---5-----------|
d----------------------------------------------------------|
a----------------------------------------------------------|
e----------------------------------------------------------|
Tap to rate this tab
# A B C D E F G H I J K L M N O P Q R S T U V W X Y Z