Song name
# A B C D E F G H I J K L M N O P Q R S T U V W X Y Z

Coldplay - X And Y tab

This song is dedicated to Artemisa Romo, she`s one of my favorite friends.This song is a 
of mine. I trust you and im very sure you`ll  be a excelent doctor. With a lot of 
for you!!! Atte: Lepus

X & Y
Artist(Band):Coldplay
Created by Lepus Gallagher

     Fm   Bm     D     E     G     D7

E||--2--|--2--|--2--|--0--|--3--|--2--|
B||--2--|--3--|--3--|--0--|--3--|--1--|
G||--2--|--4--|--2--|--1--|--4--|--2--|
D||--4--|--4--|--0--|--2--|--5--|--0--|
A||--4--|--2--|--0--|--2--|--5--|--0--|
E||--2--|--2--|--0--|--0--|--3--|--0--|

  Fm            Bm
Trying hard to speak and

   D              Bm
Fighting with my weak hand

  Fm          Bm
Driven to distraction

  D                   Bm
It's all part of the plan

 Fm                 Bm
When something is broken

 D             Bm
and you try to fix it

  Fm         Bm       E         D
Trying to repair it anyway you can

   Fm             Bm
I dive in at the deep end

E||--7/14--|
B||--------|
G||--------|
D||--------|
A||--------|
E||--------|

 D                 Bm
and you become my best friend

E||--7/14--|
B||--------|
G||--------|
D||--------|
A||--------|
E||--------|

 Fm          Bm            D              Bm
I want to love you but I don’t know if I can

E||--14/9--|
B||--------|
G||--------|
D||--------|
A||--------|
E||--------|

   Fm                Bm
I know something is broken

E||--6/7-9/10-7-7--|
B||----------------|
G||----------------|
D||----------------|
A||----------------|
E||----------------|

D                  Bm
and I’m trying to fix it

E||--7/9-10/12-9-9--|
B||-----------------|
G||-----------------|
D||-----------------|
A||-----------------|
E||-----------------|

 Fm              Bm   D       Bm
Trying to repair it anyway I can

E||--6/7-9/10-7-7---7/9-10/12-9-10/7--|
B||-----------------------------------|
G||-----------------------------------|
D||-----------------------------------|
A||-----------------------------------|
E||-----------------------------------|

  Bm      G
Oooohh, oooohh

E||--10/7--|
B||--------|
G||--------|
D||--------|
A||--------|
E||--------|

  E       G
Oooohh, oooohh

E||--10/7--|
B||--------|
G||--------|
D||--------|
A||--------|
E||--------|

  Bm      G
Oooohh, oooohh

E||--10/7--|
B||--------|
G||--------|
D||--------|
A||--------|
E||--------|

  E       G
Oooohh, oooohh

E||--10/7--|
B||--------|
G||--------|
D||--------|
A||--------|
E||--------|

 D               D7                 E
You and me are floating on a tidal wave… together

 D               D7                  E
You and me are drifting into outer space and singing

  D       E
Oooohh, oooohh

  G       E
Oooohh, oooohh

E||--------------2/3-2---2-2--|
B||--2/3-2-------------0------|
G||--------2-4----------------| X3
D||---------------------------|
A||---------------------------|
E||---------------------------|

E||---------------|
B||---------------|
G||---------------|
D||--4/5-5-0-5-5--|
A||---------------|
E||---------------|

 D               D7                 E
You and me are floating on a tidal wave… together

 D               D7                  E
You and me are drifting into outer space

D               D7                 E
You and me are floating on a tidal wave… together

E||--3-2------3-2-----3-2-----3-2--------|
B||------3-0-----3-0-----3-0-----3-0-----|
G||--------------------------------------|
D||--------------------------------------|
A||--------------------------------------|
E||--------------------------------------|

E||--5-4------5-4------5-4------5-4------|
B||------3-0-----3-0------3-0-------3-0--|
G||--------------------------------------|
D||--------------------------------------|
A||--------------------------------------|
E||--------------------------------------|

 D               D7                  E
You and me are drifting into outer space and singing

E||--3-2------3-2-----3-2-----3-2--------|
B||------3-0-----3-0-----3-0-----3-0-----|
G||--------------------------------------|
D||--------------------------------------|
A||--------------------------------------|
E||--------------------------------------|

E||--5-4------5-4------5-4------5-4------|
B||------3-0-----3-0------3-0-------3-0--|
G||--------------------------------------|
D||--------------------------------------|
A||--------------------------------------|
E||--------------------------------------|

 D       E
Oooohh, oooohh

  G       E
Oooohh, oooohh

 D       E
Oooohh, oooohh

  G       E
Oooohh, oooohh

Outro:

D   D7  E  X2
D   E
G   E
Tap to rate this tab
 
# A B C D E F G H I J K L M N O P Q R S T U V W X Y Z