Song name
# A B C D E F G H I J K L M N O P Q R S T U V W X Y Z

Coldplay - Clocks Acoustic tab

INTRO 
COLDPLAY - CLOCKS
Frankholm94@gmail.com
e ----11------11------11-----|----9------9------9------|----9------9------9-----|
B -------11------11------11--|------11------11-----11--|------11-----11-----11--|
G ----------12------12-------|----------10-----10------|----------10-----10-----|
D ---------------------------|-------------------------|------------------------|
A ---------------------------|-------------------------|------------------------|
E ---------------------------|-------------------------|------------------------| 

e ----8-------8-------8------|
B -------9-------9-------9---|
G ----------10------10-------|
D ---------------------------|
A ---------------------------|
E ---------------------------|

e -11-11-11--11-9-8----------|-9-9-9-9--9-8------------|
B -------------------11------|--------------11--9------|
G ---------------------------|-------------------------|
D ---------------------------|-------------------------|
A ---------------------------|-------------------------|
E ---------------------------|-------------------------| (Don't know how many times)
Tap to rate this tab
 
# A B C D E F G H I J K L M N O P Q R S T U V W X Y Z