Song name
# A B C D E F G H I J K L M N O P Q R S T U V W X Y Z

Coldplay - Cemeteries Of London tab

Cemeteris Of London ( Solo )
Coldplay
Viva La Vida

By Isuru Kusumal Rajapakse

============================

E|---11---9-8----8h9------------------------|
B|----------------9--------9----------------|
G|----------------------------8-------------|
D|------------------------------------------|
A|------------------------------------------|
E|------------------------------------------|

E|---11---9-8----8h9-------13--------------|
B|---------------9-------------------------|
G|-----------------------------------------|
D|-----------------------------------------|
A|-----------------------------------------|
E|-----------------------------------------|

This is the best part

E|-----11-9-8--------11-9-8--------11-9-8--------11-9-8--------------------| *
B|-11----------11-11---------11-11---------11-11----------11---------------| *
G|-------------------------------------------------------------------------|
D|-------------------------------------------------------------------------|
A|-------------------------------------------------------------------------|
E|-------------------------------------------------------------------------|

* - Repeat as required

The Last part is

E|-----13-9-8--------13-9-8-------------------|
B|-11----------11-11---------11-11------------|
G|--------------------------------------------|
D|--------------------------------------------|
A|--------------------------------------------|
E|--------------------------------------------|

*-Repeat as required

That's it ,
Please rate this tab ,
IKR
Tap to rate this tab
# A B C D E F G H I J K L M N O P Q R S T U V W X Y Z