Song name
# A B C D E F G H I J K L M N O P Q R S T U V W X Y Z

Coldplay - Strawberry Swing tab

I worked out this intro in a couple of minutes by ear, 
and it's not too hard to figure out. 
This is the way i play it, it could sound different to 
some people, but it could also sound correct to some people. 
Everyone has their own opinion, this is my first tab btw.

e|---11--13--16--16-16-13--------|--------------------------------|
b|-----------------------16-13---|---11--13--16--16-16-13-11-13---|
g|-------------------------------|--------------------------------|
d|-------------------------------|--------------------------------|
a|-------------------------------|--------------------------------|
e|-------------------------------|--------------------------------|

e|-------------------------------|
b|---11--13--16--16-16-13-11-13--|
g|-------------------------------|
d|-------------------------------|
a|-------------------------------|
e|-------------------------------|

e|---11--13--16--16-16-13--------| 
b|-----------------------16-13---|
g|-------------------------------| x2
d|-------------------------------|
a|-------------------------------|
e|-------------------------------|

e|-------------------------------|
b|---11--13--16--16-16-13-11-13--|
g|-------------------------------| x2
d|-------------------------------| 
a|-------------------------------|
e|-------------------------------|

You should be able to figure out the pattern of the intro 
on your own it's not too difficult, just listen to the song.
Tap to rate this tab
# A B C D E F G H I J K L M N O P Q R S T U V W X Y Z