Song name
# A B C D E F G H I J K L M N O P Q R S T U V W X Y Z

Coldplay - Fix You drum

COLDPLAY - FIX YOU

Album: X&Y
Tabbed by fuperman

On ride line:                        On crash line:
X - Edge (Crashing the ride)         1 - Crash 1 - Quick, clear crash
x - bow ('Ping' hit)                 2 - Crash 2 - Long, heavy crash in background
b - bell of ride


        
 2:36    7x     (Ghost notes crescendo)    6x        (Start crashing ride)
R|x-g-x-g-x-g-x-g-|x-g-x-g-x-g-x-gg|x-g-x-g-x-g-x-g-|X-x-X-x-X-x-X-x-|X-x-X-x-X-x-X-x-|
S|----------------|----------------|----------------|----------------|------------o---|
B|----------------|----------------|----------------|----------------|----------o---o-|  

 3:04
  ---------------3x----------------
C|1-(only-1st-time)----------------|----------------|----------------|
R|X-x-X-x-X-x-X-x-|X-x-X-x-X-x-X-x-|X-x-X-x-X-x-X-x-|X-x-X-x-X-------|
S|--------o---o---|--o-----o-------|--------o---o---|--o-----o-ggooOO|
B|o---o---------o-|------o-------o-|o---o---------o-|------o---------|

                                    ---------------2x----------------
C|1---------------|----------------|----------------|----------------|
R|X-x-X-x-X-x-X-x-|X-x-X-x-X-x-X-x-|X-x-X-x-X-x-X-x-|X-x-X-x-X-x-X-x-|
S|--------o---o---|--o-----o-------|--------o---o---|--o-----o-------|
B|o---o---------o-|------o-------o-|o---o---------o-|------o-------o-|

R|X-x-X-x-X-x-X-x-|X-x-X-x-X-x-----|
T|----------------|--------------oo|
S|--------o---o---|--o-----o---oo--|
B|o---o---------o-|------o---------|

3:32
                                    ---------------2x----------------
C|1---------------|----------------|2---2-----------|----------------|
R|X-x-X-x-X-x-X-x-|X-x-X-x-X-x-X-x-|X-x-X-x-X-x-X-x-|X-x-X-x-X-x-X-x-|
S|--------o---o---|--o-----o-------|--------o---o---|--o-----o-------|
B|o---o---------o-|------o-------o-|o---o---------o-|------o-------o-|

C|2---2-----------|----------------|
R|X-x-X-x-X-x-X-x-|X-x-X-x---------|
T|----------------|------------oo--|
F|----------------|--------------oo|
S|--------o---o---|--o-----ggoo----|
B|o---o---------o-|------o---------|

                                    
C|1---2-----------|----------------|----------------|----------------|
R|X-x-X-x-X-x-X-x-|X-x-X-x-X-x-X-x-|X-x-X-x-X-x-X-x-|X-x-X-x-X-x-X-x-|
S|--------o---o---|--o-----o-------|--------o---o---|--o-----o-------|
B|o---o---------o-|------o-------o-|o---o---------o-|------o-------o-|

C|2---2-----------|----------------|2---2-----------|----------------|
R|X-x-X-x-X-x-X-x-|X-x-X-x-X-x-X-x-|X-x-X-x-X-x-X-x-|X-x-X-x---------|
F|----------------|----------------|----------------|------------oooo|
S|--------o---o---|--o-----o-------|--------o---o---|--o-----ggoo----|
B|o---o---------o-|------o-------o-|o---o---------o-|------o---------|

3:59
                                    ---------------2x----------------
C|1---------------|----------------|1---------------|----------------|
R|X-x-X-x-X-x-X-x-|X-x-X-x-X-x-X-x-|X-x-X-x-X-x-X-x-|X-x-X-x-X-x-X-x-|
S|--------o---o---|--o-----o-------|--------o---o---|--o-----o-------|
B|o---o---------o-|------o-------o-|o---o---------o-|------o-------o-|

C|1---------------|----------------|
R|X-x-X-x-X-x-X-x-|X-x-X-x---------|
T|----------------|------------oo--|
F|----------------|--------------oo|
S|--------o---o---|--o-----ggoo----|
B|o---o---------o-|------o---------|

                                    ---------------2x----------------
C|1---------------|----------------|1---------------|----------------|
R|X-x-X-x-X-x-X-x-|X-x-X-x-X-x-X-x-|X-x-X-x-X-x-X-x-|X-x-X-x-X-x-X-x-|
S|--------o---o---|--o-----o-------|--------o---o---|--o-----o-------|
B|o---o---------o-|------o-------o-|o---o---------o-|------o-------o-|

C|1---------------|----------------|1---------------|
R|X-x-X-x-X-x-X-x-|X-x-X-x---------|----------------|
T|----------------|------------o---|----------------|
F|----------------|-------------goo|----------------|
S|--------o---o---|--o-----ggoo----|----------------|
B|o---o---------o-|------o---------|o---------------|
Tap to rate this tab
# A B C D E F G H I J K L M N O P Q R S T U V W X Y Z