Song name
# A B C D E F G H I J K L M N O P Q R S T U V W X Y Z

Coldplay - Swallowed In The Sea drum

COLDPLAY - SWALLOWED IN THE SEA

Album: X&Y

On crash line:                                  On hats line:
1 - Crash 1 - Quick, clear crash                X - Washy
2 - Crash 2 - Long, heavy crash in background   o - Half open
r - crash swell (roll)                          O - Open


 1:15
       
C|1---------------|----------------|----------------|----------------|
H|----x-g-x-g-x-g-|x-g-x-g-x-g-x-g-|x-g-x-g-x-g-x-g-|x-g-x-g-x-g-x-g-|
S|--------o-------|--------o-------|--------o-------|--------o-------|
B|o-----------o---|o---------------|o-----------o---|o-------------o-| 

H|x-g-x-g-x-g-x-g-|x-g-x-g-x-g-x-g-|x-g-x-g-x-g-x-g-|x-g-o---O-------|
S|--------o-------|--------o-------|--------o-------|--------o-------|
B|o-----------o---|o-------------g-|o-----------o---|o---------------|
t|----------------|----------------|----------------|----------o-----|
T|----------------|----------------|----------------|------------o---|
F|----------------|----------------|----------------|--------------g-|

C|1---------------|----------------|----------------|----------------|
H|----x-g-x-g-x-g-|x-g-x-g-x-g-x-g-|x-g-x-g-x-g-x-g-|x-g-x-g-x-g-x-g-|
S|--------o-------|--------o-------|--------o-------|--------o-------|
B|o-----------o---|o-------------o-|o-----------o---|o-------------o-| 

H|x-g-x-g-x-g-x-g-|x-g-x-g-x-g-x-g-|x-g-x-g-x-g-X-X-|o-o-O-----------|
S|--------o-------|--------o-------|--------o-------|------f-f-------|
B|o-----------o---|o-------------g-|o-----------o---|o---------------|
T|----------------|----------------|----------------|----------o-o---|

1:43

C|1---------------|----------------|----------------|----------------|
R|----x---x---x---|x---x---x---x---|x---x---x---x---|x---x---x---x---|
S|--------o-------|--------o-------|--------o-------|--------o-------|
B|o-----------g---|----------------|o-----------o---|o---------------| 

R|x---x---x---x---|x---x---x---x---|x---x---x---x---|x---x---x-------|
S|--------o-------|--------o-------|--------o-------|--------o-------|
B|o-----------o---|o---------------|o---------------|o---------------| 
T|----------------|----------------|----------------|----------g-g---|
F|----------------|----------------|----------------|--------------g-|

C|1---------------|----------------|----------------|----------------|
R|----x---x---x---|x---x---x---x---|x---x---x---x---|x---x---x---x---|
S|--------o-------|--------o-------|--------o-------|--------o-------|
B|o-----------o---|o---------------|o-----------o---|o---------------| 

R|x---x---x---x---|x---x---x---x---|x---x---x---x---|x---x---x---x---|
S|--------o-------|--------o-------|--------o-------|--------o-------|
B|o-----------o---|o---------------|o-----------o---|o---------------| 

C|1-----------2---|2---------------|
R|----x---x-------|----x---g-------|
S|--------o-------|--------o-------|
B|o-----------o---|o---------------|
F|----------------|----------o-o-o-| <-- Crescendo

2:14

C|1---------------|----------------|----------------|----------------|
R|----x-g-x-g-x-g-|x-g-x-g-x-g-x-g-|x-g-x-g-x-g-x-g-|x-g-x-g-x-g-x-g-|
S|--------o-------|--------o-------|--------o-------|--------o-------|
B|o-----------o---|o-------------g-|o-----------o---|o-------------o-|

R|x-g-x-g-x-g-x-g-|x-g-x-g-x-g-x-g-|x-g-x-g-x-g-x-g-|x-g-x-g-x-------|
S|--------o-------|--------o-------|--------o-------|--------o-------|
B|o-----------o---|o-------------g-|o-----------o---|o---------------|
t|----------------|----------------|----------------|----------ooo---|
T|----------------|----------------|----------------|--------------o-|

C|1---------------|----------------|----------------|----------------|
R|----x-g-x-g-x-g-|x-g-x-g-x-g-x-g-|x-g-x-g-x-g-x-g-|x-g-x-g-x-g-x-g-|
S|--------o-------|--------o-------|--------o-------|--------o-------|
B|o-----------o---|o-------------g-|o-----------o---|o---------------|

R|x-g-x-g-x-g-x-g-|x-g-x-g-x-g-x-g-|x-g-x-g-x-g-x-g-|x-g-x-----------|
S|--------o-------|--------o-------|--------o-------|------ooo-------|
B|o-----------o---|o-------------g-|o-----------o---|o---------------|
t|----------------|----------------|----------------|----------o-----|
T|----------------|----------------|----------------|------------o---|
F|----------------|----------------|----------------|--------------o-|

2:41

C|1---------------|----------------|----------------|----------------|
R|----x---x---x---|x---x---x---x---|x---x---x---x---|x---x---x---x---|
S|--------o-------|--------o-------|--------o-------|--------o-------|
B|o-----------o---|o---------------|o-----------o---|o---------------| 

R|x---x---x---x---|x---x---x---x---|x---x---x---x---|x---x---x-------|
S|--------o-------|--------o-------|--------o-------|--------o-------|
B|o-----------o---|o---------------|o-----------o---|o---------------| 
T|----------------|----------------|----------------|----------------|
F|----------------|----------------|----------------|-----------ggg--|

C|1---------------|2---------------|----------------|----------------|
R|----x---x---x---|----x---x---x---|x---x---x---x---|x---x---x---x---|
S|--------o-------|--------o-------|--------o-------|--------o-------|
B|o---------------|o---------------|o-----------o---|o---------------| 

R|x---x---x---x---|x---x---x---x---|x---x---x---x---|x---x---x-------|
S|--------o-------|--------o-------|--------o-------|--------o-------|
B|o-----------o---|o---------------|o-----------o---|o-----g---------| 
T|----------------|----------------|----------------|--------------g-|
F|----------------|----------------|----------------|----------g-g---|

3:09

C|1---------------|2---------------|----------------|----------------|
R|----x---x---x---|----x-g-x---x---|x---x---x---x---|x---x---x---x---|
S|--------o-------|--------o-------|--------o-------|--------o-------|
B|o-----------o---|o---------------|o-----------o---|o---------------| 

C|2------------rrr|2---------------|----------------|----------------|
R|x---x---x---x---|x---x-g-x---x---|x---x-g-x---x---|x---x-g-x-------|
S|--------o-------|--------o-------|--------o-------|--------o-------|
B|o-----------o---|o---------------|o-----------o---|o---------------| 
T|----------------|----------------|----------------|----------ggg---| 

C|1-----------2---|2---------------|----------------|----------------|
R|----x---x-------|----x---x---x---|x---x---x---x---|x---x-g-x---x---|
S|--------o-------|--------o-------|--------o-------|--------o-------|
B|o-----------o---|o---------------|o-----------o---|o---------------| 

C|2-----------2---|2---------------|----------------|----------------|
R|----x---x-------|----x-g-x---x---|x---x---x---x---|x---x---x---x---|
S|--------o-------|--------o-------|--------o-------|--------o-------|
B|o-----------o---|o---------------|o-----------o---|o---------------| 

C|1-----------2---|2---------------|
R|----x---x-------|----------------|
S|--------o-------|----------------|
B|o-----------o---|o---------------|
	
Tap to rate this tab
 
# A B C D E F G H I J K L M N O P Q R S T U V W X Y Z