Song name
# A B C D E F G H I J K L M N O P Q R S T U V W X Y Z

Coldplay - Shiver tab

-------------------------------------------------------------------------------
			     SHIVER - Coldplay
-------------------------------------------------------------------------------
Tabbed by:  Jeremy Bradshaw
Email:

Tuning:  E A B G b e-flat (same as tuning for Yellow)

These are the chords (in order) for the intro rhythm part which is repeated throughout 
entire song a lot:

e|--0--0--0--0---------------------------------------------------------------|
B|--0--0--0--0---------------------------------------------------------------|
G|--8--2--6--4---------------------------------------------------------------|
D|--0--2--5--0---------------------------------------------------------------|
A|--9--0--0--6---------------------------------------------------------------|
E|--7--2-(5)-4---------------------------------------------------------------|

The other part of the song:

e|--5--3--5--3---------------------------------------------------------------|
B|--0--0--0--0---------------------------------------------------------------|
G|--4--4--4--4---------------------------------------------------------------|
D|--5--5--5--5---------------------------------------------------------------|
A|--+--+--+--+---------------------------------------------------------------|
E|--0--0--0--0---------------------------------------------------------------|

The intro's lead part is like this:

e|---------------------------------------------------------------------------|
B|--2/4-4-4-4-2-2-2/5-5-5-5-2-2-2~4-4-4-4-2-0---------0-2--------------------|
G|--------------------------------------------1-1-1-1------------------------|
D|---------------------------------------------------------------------------|
A|---------------------------------------------------------------------------|
E|---------------------------------------------------------------------------|

e|------------------------------6-6-6-6-8-8-5--------------------------------|
B|--2/4-4-4-4-2-2-2/5-5-5-5-5-5----------------2--2/4-0----------------------|
G|---------------------------------------------------------------------------|
D|---------------------------------------------------------------------------|
A|---------------------------------------------------------------------------|
E|---------------------------------------------------------------------------|

The rest is easy to figure out once you know the tuning and these chords.


| /  slide up
| \  slide down
| h  hammer-on
| p  pull-off
| ~  vibrato
| +  harmonic
| x  Mute note
===============================================================================
Tap to rate this tab
 
# A B C D E F G H I J K L M N O P Q R S T U V W X Y Z