Song name
# A B C D E F G H I J K L M N O P Q R S T U V W X Y Z

Coldplay - Postcards From Far Away tab

Postcards From Far Away
by Coldplay

Finally finished. I also included the basic chords of the song. Have fun!
~Bapen

Capo on 1
 
   A                                        D
e|-----------------------------------------------------------------|
B|-------------0---2-----------0----------------0---2---3----------|
G|-----1---2-----------1---2------------1---2---------------1---2--|
D|---2---2-2-2---2---2---2-2-2-----0-h2---2-0-2---2-0-2---2-0-2----|
A|-0-------0-------0-------0----------------0---------------0------|
E|------------------------------------------2---------------2------|
   .       .       .       .       .        .       .       .     

   A                               D                     
e|-----------------------------------------------------------------|
B|-------------0---2-----------0-----------------------------------|
G|-----1---2-----------1---2---------------------------------------|
D|---2---2-2-2---2---2---2-2-2-----2h4-2-4-2-4-2-4-2-4-2-4-2-4-2---|
A|-0-------0-------0-------0-----------------5-4-------------4-2---|
E|-------------------------------------------0---------------------|
   .       .       .       .         .       .       .       .

   Bm                                               
e|-------------0---2-----------0---------------0---2---4---5---7-|
B|-----2---3-----------2---3-----------2---3---------------3-----|
G|---4---4---4---4---4---4---4---.---4---4-1-4---4---4---4-5-----|
D|-0-------0-------0-------0-------0-------0-------0-------0-0---|
A|---------0---------------0-------------------------------------|
E|---------2---------------2-------------------------------------|
   .       .       .       .       .       .       .       .  

   C#                              F#m
e|---------1---2---4---6---8---9-----9-8-9-12----------10-9-------9--------|
B|-----4\2---2---2---------9------------------15-11-12------9-10--10-10----|
G|---6-----1---------6---6-10------11------14----------11------------------|
D|---------------------------11-----------------------------------------12-|
A|-4---------------4-------------------------------------------------------|
E|-------------------------------------------------------------------------|
   .       .       .       .       .       .           .          .

   F#m                             E
e|---------2---4---5---2-----------------------4---5---2-------------|
B|---2-3-2---2-----0-----2-3-2-3-.-----2---3-----0---0-----2/3---2---|
G|-4-------------6---6---------------4---4---4-----------4--4---4--4-|
D|---------4---------------4---------------0----------------0--------|
A|-------------------------------------------------------------------|
E|---------------------------------0---------------0-----------------|
   .       .       .       .       .       .       .        .    

   Bm                                                 F
e|-------------4---5---2--------------------2---------------------|
B|-----2---3-----0-0-0---00-2/3---2---0-2-3---3-2-0-2-2~----------|
G|---4---4---4---------------4--4---4---------4-----1-3~----------|
D|---------4-----------------0--------------4-----4---4~----------|
A|-2------------------------------------1-4-----4-----4~----------|
E|------------------------------------2---------------2~----------|
   .       .       .         .        . (rit) .       .^improvise
Tap to rate this tab
# A B C D E F G H I J K L M N O P Q R S T U V W X Y Z