Song name
# A B C D E F G H I J K L M N O P Q R S T U V W X Y Z

Coldplay - See You Soon tab

Intro:

e-|--------0--------------------0---------0--------|
B-|----------5---8------9-----4---4---2h4---4------|
G-|------------------------------------------------|
D-|------------------------------------------------|
A-|----4-4-------7------7-----2--------------------|
E-|------------------------------------------------|

e-|--------0--------------------0---------0--------|
B-|----------5---8------9-----4---4---2h4---4------|
G-|------------------------------------------------|
D-|------------------------------------------------|
A-|----4-4-------7------7-----2--------------------|
E-|------------------------------------------------|

e-|--------0--------------------0---------0--------|
B-|----------5---8------9-----4---4---2h4---4------|
G-|------------------------------------------------|
D-|------------------------------------------------|
A-|----4-4-------7------7-----2--------------------|
E-|------------------------------------------------|

e-|------0-------0------0---------0----------------|
B-|---10---10--9---9--4---4---2h4---4--------------|
G-|------------------------------------------------|
D-|------------------------------------------------|
A-|----9-------7------2----------------------------|
E-|------------------------------------------------|

Verses are:

e-|--------0--------------------0---------0--------|
B-|----------5---8------9-----4---4---2h4---4------|
G-|------------------------------------------------|
D-|------------------------------------------------|
A-|----4-4-------7------7-----2--------------------|
E-|------------------------------------------------|

e-|--------0--------------------0---------0--------|
B-|----------5---8------9-----4---4---2h4---4------|
G-|------------------------------------------------|
D-|------------------------------------------------|
A-|----4-4-------7------7-----2--------------------|
E-|------------------------------------------------|

e-|--------0--------------------0---------0--------|
B-|----------5---8------9-----4---4---2h4---4------|
G-|------------------------------------------------|
D-|------------------------------------------------|
A-|----4-4-------7------7-----2--------------------|
E-|------------------------------------------------|

e-|--------0--------------------0---------0--------|
B-|----------5---8------9-----4---4---2h4---4------|
G-|------------------------------------------------|
D-|------------------------------------------------|
A-|----4-4-------7------7-----2--------------------|
E-|------------------------------------------------|

Choruses are:

e-|------0-------0------0---------0----------------|
B-|---10---10--9---9--4---4---2h4---4--------------|
G-|------------------------------------------------|
D-|------------------------------------------------|
A-|----9-------7------2----------------------------|
E-|------------------------------------------------|

e-|------0-------0------0---------0----------------|
B-|---10---10--9---9--4---4---2h4---4--------------|
G-|------------------------------------------------|
D-|------------------------------------------------|
A-|----9-------7------2----------------------------|
E-|------------------------------------------------|

e-|------0-------0------0---------0----------------|
B-|---10---10--9---9--4---4---2h4---4--------------|
G-|------------------------------------------------|
D-|------------------------------------------------|
A-|----9-------7------2----------------------------|
E-|------------------------------------------------|

e-|------0-------0------0---------0----------------|
B-|---10---10--9---9--4---4---2h4---4--------------|
G-|------------------------------------------------|
D-|------------------------------------------------|
A-|----9-------7------2----------------------------|
E-|------------------------------------------------|
Tap to rate this tab
# A B C D E F G H I J K L M N O P Q R S T U V W X Y Z