Song name
# A B C D E F G H I J K L M N O P Q R S T U V W X Y Z

Coldplay - Strawberry Swing tab

STRAWBERRY SWING - COLDPLAY

This is what jonny plays...
Watch the "Live & Acoustic Stripped performances on I Heart Radio" of Coldplay.

e|---------16--16-16h13------------------11--11-11h8------------------|
B|-16--18---------------16-13----11--13--------------11h9-----11--13--|
G|----------------------------15---------------------------10---------|
D|--------------------------------------------------------------------|
A|--------------------------------------------------------------------|
E|--------------------------------------------------------------------|


e|-16--16-16h13-------------------|
B|--------------16-13----16---18--|
G|--------------------15----------|
D|--------------------------------|
A|--------------------------------|
E|--------------------------------|
Tap to rate this tab
# A B C D E F G H I J K L M N O P Q R S T U V W X Y Z