Song name
# A B C D E F G H I J K L M N O P Q R S T U V W X Y Z

Coldplay - Shiver tab

Great song from Coldplay album Parachutes.
Standard tuning.
________________________________
Intro

|...X|-9-11-12-9-11-12-| X4 (single notes that is)        0---|
|...9|-----------------|                    7-----------------|
|...9|-----------------|                    9-----------------|
|...9|-----------------|                    9-----------------|
|...7|-----------------|                    9-----------------|
|...0|-----------------|    Chris strums opening chord with 0-| variation


Main riff
 Bsus2		F#m	       Asus2	      E
|--------------|--------------|--------------|--------------|	X2
|-2/4-4-4-4\2-2|-2/5-5-5-5\2-2|-2/4-4-4-4\2-2|--------------|
|--------------|--------------|--------------|-1-1/4-4-4----|
|--------------|--------------|--------------|--------------|
|--------------|--------------|--------------|--------------|
|--------------|--------------|--------------|--------------|

 Bsus2		F#m		Asus2	       E
|--------------|--------------|-5-5-5-5-5-7-7|-4------------|
|-2/4-4-4-4\2-2|-2/5-5-5-5-5-5|--------------|--------------|
|--------------|--------------|--------------|--------------|
|--------------|--------------|--------------|--------------|
|--------------|--------------|--------------|--------------|
|--------------|--------------|--------------|--------------|

 Asus2			       G#m
|--------------|--------------|--------------|--------------|
|--------------|--------------|--------------|--------------|
|-6------------|--------------|-8\4----------|--------------|
|--------------|--------------|--------------|--------------|
|--------------|--------------|--------------|--------------|
|--------------|--------------|--------------|--------------|

Acoustic guitar:
"Look in your  diRection...
|-7-----7------|-7-----7------|
|-9-----9------|-7-----7------|
|-9-----9------|-9-----9------|		X2
|-9-----9------|-9-----9------|
|-7-----7------|-7-----7------|
|--------------|--------------|

do you...& don't you part etc
 B
|----14--12----|11----11-9----|
|--12--12--12--|--12------12--|
|11----------11|----11------11|
|--------------|--------------|
|--------------|--------------|
|--------------|--------------|

from the moment I wake....
  E 8va
|--------------|--------------|--------------|--------------|
|--------------|--------------|--------------|--------------|
|-9-9-9-9-9-9--|-9\8-8-8\6-6--|-9-9-9-9-9-9--|-9\8-8-8\6-6--|
|--------------|--------------|--------------|--------------|
|--------------|--------------|--------------|--------------|
|--------------|--------------|--------------|--------------|

 F#
|--------------|--------------|--------------|--------------|
|--------------|--------------|--------------|--------------|
|-9-9-9-9-9-9--|-9\8-8-8\6-6--|-9-9-9-9-9-9--|-9\8-8-8/11-11|
|--------------|--------------|--------------|--------------|
|--------------|--------------|--------------|--------------|
|--------------|--------------|--------------|--------------|

 E 8va
|--------------|--------------|--------------|--------------|
|--------------|--------------|--------------|--------------|
|--------------|--------------|--------------|--------------|
|--------------|--------------|--------------|--------------|
|-9-9-9-9-9-9--|-9\8-8-8\6-6--|-9-9-9-9-9-9--|-9\8-8-8\6-6--|
|--------------|--------------|--------------|--------------|

 B
|--------------|--------------|------------------|------------------|
|-4-4-4-4-4-4/-|-7-7-7-7-7-7/-|-10-10-10-10-10-10|------------------|
|-4-4-4-4-4-4/-|-8-8-8-8-8-8/-|-11-11-11-11-11-11|-14-14-14-14-14-14|
|--------------|--------------|------------------|------------------|
|--------------|--------------|------------------|------------------|
|--------------|--------------|------------------|------------------|

Does she want me to change

|------------------|------------------|
|------------------|------------------|
|13-13-13-13-13-13-|12-12-12-12-12-12-|
|------------------|------------------|
|------------------|------------------|
|------------------|------------------|
|
|------11------|------11------|	X3
|---12----12---|---12----12---|
|13----------13|12----------12|
|--------------|--------------|
|--------------|--------------|
|--------------|--------------|

|------------------|------------------|
|------------------|------------------|
|11-11-11-11-11-11-|10-10-10-10-10-10-|
|------------------|------------------|
|------------------|------------------|
|------------------|------------------|
|
|------11------|------11------|
|---12----12---|---12----12---|
|11----------11|10----------10|
|--------------|--------------|
|--------------|--------------|
|--------------|--------------|


The bit near the end (always be waiting for you)

|--------------|-5-5-5-5-5-5\-|-4-4-4-4-4-4--|-4-4-4-4-4-4--|
|-7-7-7-7-7-7--|--------------|--------------|--------------|
|--------------|--------------|--------------|--------------|
|--------------|--------------|--------------|--------------|
|--------------|--------------|--------------|--------------|
|--------------|--------------|--------------|--------------|

Bsus2	7 9 9 8 0 0
F#m	2 4 4 2 2 2
Asus2	5 7 7 6 0 0
E	0 2 2 1 0 0
B	7 9 9 8 7 7
E 8va	X 7 9 9 9 7
G	3 2 0 0 0 3
F#	2 4 4 3 2 2
Tap to rate this tab
# A B C D E F G H I J K L M N O P Q R S T U V W X Y Z