Song name
# A B C D E F G H I J K L M N O P Q R S T U V W X Y Z

Coldplay - Life Is For Living tab

This song is at the end of Everything's not lost and is a very easy short good song.

The tuning is E A D G B D


It goes like this:

D--0--0--0--0--0--0--X--X--X--X--X--X--X--0--0--0--------------------|
B--3--3--3--3--3--3--1--4--4--4--4--4--4--3--4--3--------------------|
G--3--3--3--3--3--3--2--3--3--3--3--3--3--3--3--3--------------------|
D--3--3--3--3--3--3--3--1--1--0--X--X--X--3--3--3--------------------|
A--1--1--0--X--X--2--3--X--X--X--3--3--3--1--1--1--------------------|
E--X--X--X--3--3--1--1--X--X--X--X--X--X--X--X--X--------------------|

Repeat this then play this for the bridge

D-X--X--1---X--X--X---X--X--1-----------------------------------------------|
B-1--1--4---4--4--4---1--1--4-----------------------------------------------|
G-2--2--2---3--3--3---2--2--2-----------------------------------------------|
D-3--3--X---1--1--1---3--3--X-----------------------------------------------|
A-3--3--3---X--X--X---3--3--3-----------------------------------------------|
E-1--1--1---X--X--X---1--1--1-----------------------------------------------|


Then repeat the first part again.  I hope you like this!
Tap to rate this tab
# A B C D E F G H I J K L M N O P Q R S T U V W X Y Z