Song name
# A B C D E F G H I J K L M N O P Q R S T U V W X Y Z

Coldplay - Yellow tab

YELLOW
As recorded by Coldplay
(Released as a Single in 2000)

 Words and Music by Coldplay
Arranged by Boyce Avenue
 Transcribed by B.J. Evans

Gtr I (Db Ab Db Gb Ab Eb) 
Gtr II (Db Ab Db Gb Ab Eb) 


 Intro
  Q=90
 4/4
  Gtr I
  Q  E Q  E E S S   Q   E Q  E Q      Q   E Q  E E S S   Q   E Q  E Q
|-0--0-0--0-0-x-x-|-0---0-0--0-0--|---0---0-0--0-0-x-x-|-0---0-0--0-0---|
|-3--3-3--3-3-x-x-|-3---3-3--3-3--|---3---3-3--3-3-x-x-|-3---3-3--3-3---|
|-0--0-0--0-0-x-x-|-0---0-0--0-0--|---0---0-0--0-0-x-x-|-0---0-0--0-0---|
|-2--2-2--2-2-x-x-|-2---2-3--3-3--|---2---2-2--2-2-x-x-|-2---2-3--3-3---|
|-3--3-3--3-3-x-x-|-3---3-3--3-3--|---3---3-3--3-3-x-x-|-3---3-3--3-3---|
|-----------------|---------------|--------------------|----------------|
|
| Gtr II
| W                   W               W                    W
|-----------------|---------------|-[12]---------------|----------------|
|-----------------|---------------|-[12]---------------|----------------|
|-----------------|---------------|--12----------------|----------------|
|-----------------|---------------|--------------------|----------------|
|-----------------|---------------|--------------------|----------------|
|-----------------|---------------|--------------------|----------------|


 Breakdown
  E E E E E E E E   E E E E E E E E   E E E E E E E E   E E E E E E E E
|-3-3-3-3-3-3-3-3p|=1-1-1-1-1-1-1-1s|=7-7-7-7-7-7-7-7s|=5-5-5-5-5-5-5-5-|
|-2-2-2-2-2-2-2-2-|-2-2-2-2-2-2-2-2s|=0-0-0-0-0-0-0-0-|-0-0-0-0-0-0-0-0-|
|-0-0-0-0-0-0-0-0-|-0-0-0-0-0-0-0-0-|-0-0-0-0-0-0-0-0-|-0-0-0-0-0-0-0-0-|
|-0-0-0-0-0-0-0-0-|-0-0-0-0-0-0-0-0-|-0-0-0-0-0-0-0-0-|-0-0-0-0-0-0-0-0-|
|-3-3-3-3-3-3-3-3-|-3-3-3-3-3-3-3-3s|=7-7-7-7-7-7-7-7s|=5-5-5-5-5-5-5-5-|
|-----------------|-----------------|-7-7-7-7-7-7-7-7s|=5-5-5-5-5-5-5-5-|
|
| E E E E E E E E   E E E E E E E E   E E E E E E E E   E E E E E E E E
|-0-0-0-0-0-0-0-0-|-0-0-0-0-0-0-0-0-|-0-0-0-0-0-0-0-0-|-0-0-0-0-0-0-0-0-|
|-3-3-3-3-3-3-3-3-|-3-3-3-3-3-3-3-3-|-0-0-0-0-0-0-0-0-|-0-0-0-0-0-0-0-0-|
|-0-0-0-0-0-0-0-0-|-0-0-0-0-0-0-0-0-|-4-4-4-4-4-4-4-4h|=5-5-5-5-5-5-5-5-|
|-2-2-2-2-2-2-2-2h|=3-3-3-3-3-3-3-3-|-5-5-5-5-5-5-5-5-|-5-5-5-5-5-5-5-5-|
|-3-3-3-3-3-3-3-3-|-3-3-3-3-3-3-3-3-|-5-5-5-5-5-5-5-5-|-5-5-5-5-5-5-5-5-|
|-----------------|-----------------|-----------------|-----------------|


  E E E E E E E E   E E E E E E E E   E E E E E E E E   E E E E E E E E
|-0-0-0-0-0-0-0-0-|-0-0-0-0-0-0-0-0-|-3-3-3-3-3-3-3-3-|-1-1-1-1-1-1-1-1-|
|-0-0-0-0-0-0-0-0-|-0-0-0-0-0-0-0-0-|-2-2-2-2-2-2-2-2-|-2-2-2-2-2-2-2-2-|
|-2-2-2-2-2-2-2-2p|=0-0-0-0-0-0-0-0-|-0-0-0-0-0-0-0-0-|-0-0-0-0-0-0-0-0-|
|-3-3-3-3-3-3-3-3-|-3-3-3-3-3-3-3-3-|-0-0-0-0-0-0-0-0-|-0-0-0-0-0-0-0-0-|
|-3-3-3-3-3-3-3-3-|-3-3-3-3-3-3-3-3-|-3-3-3-3-3-3-3-3-|-3-3-3-3-3-3-3-3-|
|-----------------|-----------------|-----------------|-----------------|
|
| E E E E E E E E   E E E E E E E E   E E E E E E E E   E E E E E E E E
|-0-0-0-0-0-0-0-0-|-0-0-0-0-0-0-0-0-|-0-0-0-0-0-0-0-0-|-0-0-0-0-0-0-0-0-|
|-0-0-0-0-0-0-0-0-|-0-0-0-0-0-0-0-0-|-3-3-3-3-3-3-3-3-|-3-3-3-3-3-3-3-3-|
|-2-2-2-2-2-2-2-2p|=0-0-0-0-0-0-0-0-|-0-0-0-0-0-0-0-0-|-0-0-0-0-0-0-0-0-|
|-3-3-3-3-3-3-3-3-|-3-3-3-3-3-3-3-3-|-2-2-2-2-2-2-2-2h|=3-3-3-3-3-3-3-3-|
|-3-3-3-3-3-3-3-3-|-3-3-3-3-3-3-3-3-|-3-3-3-3-3-3-3-3-|-3-3-3-3-3-3-3-3-|
|-----------------|-----------------|-----------------|-----------------|


   Verse
     PM------------------------------------
     E E E E E E E E     E  E E E E E E E
||-------------------|--------------------|
||o------------------|--------------------|
||---0-0-0-0-0-0-0-0-|---0--0-0-0-0-0-0-0-|
||---2-2-2-2-2-2-2-2-|---2--2-2-2-2-2-2-2-|
||o--3-3-3-3-3-3-3-3-|---3--3-3-3-3-3-3-3-|
||-------------------|--------------------|
|
|    W                  +W
||--^0---------------|-^(0)---------------|
||o-^3---------------|-^(3)---------------|
||--^0---------------|-^(0)---------------|
||--^2---------------|-^(2)---------------|
||o-^3---------------|-^(3)---------------|
||-------------------|--------------------|


 ------------------------------------|
   E E E E E E E E    E  E E E E E E E
|------------------|--------------------|
|------------------|--------------------|
|--4-4-4-4-4-4-4-4-|--4--4-4-4-4-4-4-4--|
|--5-5-5-5-5-5-5-5-|--5--5-5-5-5-5-5-5--|
|--5-5-5-5-5-5-5-5-|--5--5-5-5-5-5-5-5--|
|------------------|--------------------|
|
|  W                 +W
|-^0---------------|-(0)----------------|
|-^0---------------|-(0)----------------|
|-^4---------------|-(4)----------------|
|-^5---------------|-(5)----------------|
|-^5---------------|-(5)----------------|
|------------------|--------------------|


   PM--------------------------------|
   E E E E E E E E    E  E E E E E E E  3x
|------------------|--------------------||
|------------------|-------------------o||
|--2-2-2-2-2-2-2-2-|--0--0-0-0-0-0-0-0--||
|--3-3-3-3-3-3-3-3-|--3--3-3-3-3-3-3-3--||
|--3-3-3-3-3-3-3-3-|--3--3-3-3-3-3-3-3-o||
|------------------|--------------------||
|
|  W                 +W                 3x
|-^0---------------|-(0)----------------||
|-^0---------------|-(0)---------------o||
|-^2---------------|-(2)----------------||
|-^3---------------|-(3)----------------||
|-^3---------------|-(3)---------------o||
|------------------|--------------------||


      E E E E E E E E   E E E E E E E E
|-||--0-0-0-0-0-0-0-0-|-0-0-0-0-0-0-0----|
|-||o-3-3-3-3-3-3-3-3-|-3-3-3-3-3-3-3----|
|-||--0-0-0-0-0-0-0-0-|-0-0-0-0-0-0-0----|
|-||--2-2-2-2-3-3-3-3-|-2-2-2-2-2-2-2----|
|-||o-3-3-3-3-3-3-3-3-|-3-3-3-3-3-3-3----|
|-||------------------|------------------|
|
|     E E E E E E E E   E E E E E E E E
|-||------------------|------------------|
|-||o-7---7---8---8---|-7---7---7---7----|
|-||----5---5---5---5-|---5---5---5------|
|-||------------------|------------------|
|-||o-----------------|------------------|
|-||------------------|------------------|


   Chorus
    E  E E  E E  E E  E  E  E  E  E  E  E  E  E  3x
||--0--0-0--0-0--0-0--0--0--0--0--0--0--0--0--0--||
||o-0--0-0--0-0--0-0--0--0--0--0--0--3--3--3--3-o||
||--2--2-2--2-2--2-2--2--5--5--5--5--4--4--4--4--||
||--3--3-3--3-3--3-3--3--0--0--0--0--5--5--5--5--||
||o-3--3-3--3-3--3-3--3--7--7--7--7--5--5--5--5-o||
||-----------------------7--7--7--7--------------||
|
|   E  E E  E E  E E  E  E  E  E  E  E  E  E  E  3x
||--8----8----8----8----12----12----10----10-----||
||o---10---10---10---10----10----10----10----10-o||
||-----------------------------------------------||
||-----------------------------------------------||
||o---------------------------------------------o||
||-----------------------------------------------||


 Chorus       Breakdown
  E  E E E E    E E E E E E E E   E E E E E E E E
|-0--0-0-0-0-|--3-3-3-3-3-3-3-3p|=1-1-1-1-1-1-1-1s===|
|-3--3-3-3-3-|--2-2-2-2-2-2-2-2-|-2-2-2-2-2-2-2-2s===|
|-0--0-0-0-0-|--0-0-0-0-0-0-0-0-|-0-0-0-0-0-0-0-0----|
|-2--2-2-2-2-|--0-0-0-0-0-0-0-0-|-0-0-0-0-0-0-0-0----|
|-3--3-3-3-3-|--3-3-3-3-3-3-3-3-|-3-3-3-3-3-3-3-3s===|
|------------|------------------|--------------------|
|
| E  Q   E E    E E E E E E E E   E E E E E E E E
|-8----------|--0-0-0-0-0-0-0-0-|-0-0-0-0-0-0-0-0----|
|---10---8---|--3-3-3-3-3-3-3-3-|-3-3-3-3-3-3-3-3----|
|----------9-|--0-0-0-0-0-0-0-0-|-0-0-0-0-0-0-0-0----|
|------------|--2-2-2-2-2-2-2-2h|=3-3-3-3-3-3-3-3----|
|------------|--3-3-3-3-3-3-3-3-|-3-3-3-3-3-3-3-3----|
|------------|------------------|--------------------|


  E E E E E E E E   E E E E E E E E   E E E E E E E E   E E E E E E E E
|-7-7-7-7-7-7-7-7s|=5-5-5-5-5-5-5-5-|-0-0-0-0-0-0-0-0-|-0-0-0-0-0-0-0-0-|
|-0-0-0-0-0-0-0-0-|-0-0-0-0-0-0-0-0-|-0-0-0-0-0-0-0-0-|-0-0-0-0-0-0-0-0-|
|-0-0-0-0-0-0-0-0-|-0-0-0-0-0-0-0-0-|-2-2-2-2-2-2-2-2p|=0-0-0-0-0-0-0-0-|
|-0-0-0-0-0-0-0-0-|-0-0-0-0-0-0-0-0-|-3-3-3-3-3-3-3-3-|-3-3-3-3-3-3-3-3-|
|-7-7-7-7-7-7-7-7s|=5-5-5-5-5-5-5-5-|-3-3-3-3-3-3-3-3-|-3-3-3-3-3-3-3-3-|
|-7-7-7-7-7-7-7-7s|=5-5-5-5-5-5-5-5-|-----------------|-----------------|
|
| E E E E E E E E   E E E E E E E E   E E E E E E E E   E E E E E E E E
|-0-0-0-0-0-0-0-0-|-0-0-0-0-0-0-0-0-|-0-0-0-0-0-0-0-0-|-0-0-0-0-0-0-0-0-|
|-0-0-0-0-0-0-0-0-|-0-0-0-0-0-0-0-0-|-0-0-0-0-0-0-0-0-|-0-0-0-0-0-0-0-0-|
|-4-4-4-4-4-4-4-4h|=5-5-5-5-5-5-5-5-|-2-2-2-2-2-2-2-2p|=0-0-0-0-0-0-0-0-|
|-5-5-5-5-5-5-5-5-|-5-5-5-5-5-5-5-5-|-3-3-3-3-3-3-3-3-|-3-3-3-3-3-3-3-3-|
|-5-5-5-5-5-5-5-5-|-5-5-5-5-5-5-5-5-|-3-3-3-3-3-3-3-3-|-3-3-3-3-3-3-3-3-|
|-----------------|-----------------|-----------------|-----------------|


                                         PM---------------------------------|
  E E E E E E E E   E E E E E E E E      E E E E E E E E     E  E E E E E E E
|-3-3-3-3-3-3-3-3-|-1-1-1-1-1-1-1-1-||-------------------|--------------------|
|-2-2-2-2-2-2-2-2-|-2-2-2-2-2-2-2-2-||o------------------|--------------------|
|-0-0-0-0-0-0-0-0-|-0-0-0-0-0-0-0-0-||---0-0-0-0-0-0-0-0-|---0--0-0-0-0-0-0-0-|
|-0-0-0-0-0-0-0-0-|-0-0-0-0-0-0-0-0-||---2-2-2-2-2-2-2-2-|---2--2-2-2-2-2-2-2-|
|-3-3-3-3-3-3-3-3-|-3-3-3-3-3-3-3-3-||o--3-3-3-3-3-3-3-3-|---3--3-3-3-3-3-3-3-|
|-----------------|-----------------||-------------------|--------------------|
|
| E E E E E E E E   E E E E E E E E      W                  +W
|-0-0-0-0-0-0-0-0-|-0-0-0-0-0-0-0-0-||--^0---------------|-^(0)---------------|
|-3-3-3-3-3-3-3-3-|-3-3-3-3-3-3-3-3-||o-^3---------------|-^(3)---------------|
|-0-0-0-0-0-0-0-0-|-0-0-0-0-0-0-0-0-||--^0---------------|-^(0)---------------|
|-2-2-2-2-2-2-2-2h|=3-3-3-3-3-3-3-3-||--^2---------------|-^(2)---------------|
|-3-3-3-3-3-3-3-3-|-3-3-3-3-3-3-3-3-||o-^3---------------|-^(3)---------------|
|-----------------|-----------------||-------------------|--------------------|


   PM-----------------------------------
   E E E E E E E E    E  E E E E E E E
|------------------|-------------------|
|------------------|-------------------|
|--4-4-4-4-4-4-4-4-|--4--4-4-4-4-4-4-4-|
|--5-5-5-5-5-5-5-5-|--5--5-5-5-5-5-5-5-|
|--5-5-5-5-5-5-5-5-|--5--5-5-5-5-5-5-5-|
|------------------|-------------------|
|
|  W                 +W
|-^0---------------|-(0)---------------|
|-^0---------------|-(0)---------------|
|-^4---------------|-(4)---------------|
|-^5---------------|-(5)---------------|
|-^5---------------|-(5)---------------|
|------------------|-------------------|


 ------------------------------------|
   E E E E E E E E    E  E E E E E E E
|------------------|--------------------||
|------------------|-------------------o||
|--2-2-2-2-2-2-2-2-|--0--0-0-0-0-0-0-0--||
|--3-3-3-3-3-3-3-3-|--3--3-3-3-3-3-3-3--||
|--3-3-3-3-3-3-3-3-|--3--3-3-3-3-3-3-3-o||
|------------------|--------------------||
|
|  W                 +W
|-^0---------------|-(0)----------------||
|-^0---------------|-(0)---------------o||
|-^2---------------|-(2)----------------||
|-^3---------------|-(3)----------------||
|-^3---------------|-(3)---------------o||
|------------------|--------------------||


                                       Chorus
  E E E E E E E E   E E E E E E E E     E  E E  E E  E E  E
|-0-0-0-0-0-0-0-0-|-0-0-0-0-0-0-0---||--0--0-0--0-0--0-0--0-|
|-3-3-3-3-3-3-3-3-|-3-3-3-3-3-3-3---||o-0--0-0--0-0--0-0--0-|
|-0-0-0-0-0-0-0-0-|-0-0-0-0-0-0-0---||--2--2-2--2-2--2-2--2-|
|-2-2-2-2-3-3-3-3-|-2-2-2-2-2-2-2---||--3--3-3--3-3--3-3--3-|
|-3-3-3-3-3-3-3-3-|-3-3-3-3-3-3-3---||o-3--3-3--3-3--3-3--3-|
|-----------------|-----------------||----------------------|
|
| E E E E E E E E   E E E E E E E E     E  E E  E E  E E  E
|-----------------|-----------------||--8----8----8----8----|
|-7---7---8---8---|-7---7---7---7---||o---10---10---10---10-|
|---5---5---5---5-|---5---5---5-----||----------------------|
|-----------------|-----------------||----------------------|
|-----------------|-----------------||o---------------------|
|-----------------|-----------------||----------------------|


   E  E  E  E  E  E  E  E  3x E  E E E E
|--0--0--0--0--0--0--0--0--||-0--0-0-0-0-|
|--0--0--0--0--3--3--3--3-o||-3--3-3-3-3-|
|--5--5--5--5--4--4--4--4--||-0--0-0-0-0-|
|--0--0--0--0--5--5--5--5--||-2--2-2-2-2-|
|--7--7--7--7--5--5--5--5-o||-3--3-3-3-3-|
|--7--7--7--7--------------||------------|
|
|  E  E  E  E  E  E  E  E  3x E  Q   E E
|-12----12----10----10-----||-8----------|
|----10----10----10----10-o||---10---8---|
|--------------------------||----------9-|
|--------------------------||------------|
|-------------------------o||------------|
|--------------------------||------------|


   Breakdown
    E E E E E E E E   E E E E E E E E   E E E E E E E E   E E E E E E E E
||--3-3-3-3-3-3-3-3p|=1-1-1-1-1-1-1-1s|=7-7-7-7-7-7-7-7s|=5-5-5-5-5-5-5-5-|
||o-2-2-2-2-2-2-2-2-|-2-2-2-2-2-2-2-2s|=0-0-0-0-0-0-0-0-|-0-0-0-0-0-0-0-0-|
||--0-0-0-0-0-0-0-0-|-0-0-0-0-0-0-0-0-|-0-0-0-0-0-0-0-0-|-0-0-0-0-0-0-0-0-|
||--0-0-0-0-0-0-0-0-|-0-0-0-0-0-0-0-0-|-0-0-0-0-0-0-0-0-|-0-0-0-0-0-0-0-0-|
||o-3-3-3-3-3-3-3-3-|-3-3-3-3-3-3-3-3s|=7-7-7-7-7-7-7-7s|=5-5-5-5-5-5-5-5-|
||------------------|-----------------|-7-7-7-7-7-7-7-7s|=5-5-5-5-5-5-5-5-|
|
|   E E E E E E E E   E E E E E E E E   E E E E E E E E   E E E E E E E E
||--0-0-0-0-0-0-0-0-|-0-0-0-0-0-0-0-0-|-0-0-0-0-0-0-0-0-|-0-0-0-0-0-0-0-0-|
||o-3-3-3-3-3-3-3-3-|-3-3-3-3-3-3-3-3-|-0-0-0-0-0-0-0-0-|-0-0-0-0-0-0-0-0-|
||--0-0-0-0-0-0-0-0-|-0-0-0-0-0-0-0-0-|-4-4-4-4-4-4-4-4h|=5-5-5-5-5-5-5-5-|
||--2-2-2-2-2-2-2-2h|=3-3-3-3-3-3-3-3-|-5-5-5-5-5-5-5-5-|-5-5-5-5-5-5-5-5-|
||o-3-3-3-3-3-3-3-3-|-3-3-3-3-3-3-3-3-|-5-5-5-5-5-5-5-5-|-5-5-5-5-5-5-5-5-|
||------------------|-----------------|-----------------|-----------------|


  E E E E E E E E   E E E E E E E E   E E E E E E E E   E E E E E E E E
|-0-0-0-0-0-0-0-0-|-0-0-0-0-0-0-0-0-|-3-3-3-3-3-3-3-3-|-1-1-1-1-1-1-1-1--||
|-0-0-0-0-0-0-0-0-|-0-0-0-0-0-0-0-0-|-2-2-2-2-2-2-2-2-|-2-2-2-2-2-2-2-2-o||
|-2-2-2-2-2-2-2-2p|=0-0-0-0-0-0-0-0-|-0-0-0-0-0-0-0-0-|-0-0-0-0-0-0-0-0--||
|-3-3-3-3-3-3-3-3-|-3-3-3-3-3-3-3-3-|-0-0-0-0-0-0-0-0-|-0-0-0-0-0-0-0-0--||
|-3-3-3-3-3-3-3-3-|-3-3-3-3-3-3-3-3-|-3-3-3-3-3-3-3-3-|-3-3-3-3-3-3-3-3-o||
|-----------------|-----------------|-----------------|------------------||
|
| E E E E E E E E   E E E E E E E E   E E E E E E E E   E E E E E E E E
|-0-0-0-0-0-0-0-0-|-0-0-0-0-0-0-0-0-|-0-0-0-0-0-0-0-0-|-0-0-0-0-0-0-0-0--||
|-0-0-0-0-0-0-0-0-|-0-0-0-0-0-0-0-0-|-3-3-3-3-3-3-3-3-|-3-3-3-3-3-3-3-3-o||
|-2-2-2-2-2-2-2-2p|=0-0-0-0-0-0-0-0-|-0-0-0-0-0-0-0-0-|-0-0-0-0-0-0-0-0--||
|-3-3-3-3-3-3-3-3-|-3-3-3-3-3-3-3-3-|-2-2-2-2-2-2-2-2h|=3-3-3-3-3-3-3-3--||
|-3-3-3-3-3-3-3-3-|-3-3-3-3-3-3-3-3-|-3-3-3-3-3-3-3-3-|-3-3-3-3-3-3-3-3-o||
|-----------------|-----------------|-----------------|------------------||


  E E E E E E E E   E E E E E E E E
|-0-0-0-0-0-0-0-0-|-0-0-0-0-0-0-0-0-|
|-3-3-3-3-3-3-3-3-|-3-3-3-3-3-3-3-3-|
|-0-0-0-0-0-0-0-0-|-0-0-0-0-0-0-0-0-|
|-2-2-2-2-2-2-2-2-|-2-2-2-2-2-2-2-2-|
|-3-3-3-3-3-3-3-3-|-3-3-3-3-3-3-3-3-|
|-----------------|-----------------|
|
| E E E E E E E E   E E E E E E E E
|-0-0-0-0-0-0-0-0-|-0-0-0-0-0-0-0-0-|
|-3-3-3-3-3-3-3-3-|-3-3-3-3-3-3-3-3-|
|-0-0-0-0-0-0-0-0-|-0-0-0-0-0-0-0-0-|
|-2-2-2-2-2-2-2-2-|-2-2-2-2-2-2-2-2-|
|-3-3-3-3-3-3-3-3-|-3-3-3-3-3-3-3-3-|
|-----------------|-----------------|


  E E E E E E E E   E E E E E E E E    W
|-0-0-0-0-0-0-0-0-|-0-0-0-0-0-0-0-0-|-^0----*|
|-0-0-0-0-0-0-0-0-|-0-0-0-0-0-0-0-0-|-^0----*|
|-7-7-7-7-7-7-7-7-|-7-7-7-7-7-7-7-7-|-^2----*|
|-8-8-8-8-8-8-8-8-|-8-8-8-8-8-8-8-8-|-^3----*|
|-8-8-8-8-8-8-8-8-|-8-8-8-8-8-8-8-8-|-^3----*|
|-8-8-8-8-8-8-8-8-|-8-8-8-8-8-8-8-8-|-------*|
|
| E E E E E E E E   E E E E E E E E    W
|-0-0-0-0-0-0-0-0-|-0-0-0-0-0-0-0-0-|-^0----*|
|-0-0-0-0-0-0-0-0-|-0-0-0-0-0-0-0-0-|-^0----*|
|-7-7-7-7-7-7-7-7-|-7-7-7-7-7-7-7-7-|-^2----*|
|-8-8-8-8-8-8-8-8-|-8-8-8-8-8-8-8-8-|-^3----*|
|-8-8-8-8-8-8-8-8-|-8-8-8-8-8-8-8-8-|-^3----*|
|-8-8-8-8-8-8-8-8-|-8-8-8-8-8-8-8-8-|-------*|




--------------------------------------------------------------------------------


Duration Legend
---------------
W - whole; H - half; Q - quarter; E - 8th; S - 16th; T - 32nd; X - 64th; a - acciaccatura
+ - note tied to previous; . - note dotted; .. - note double dotted
Uncapitalized letters represent notes that are staccato (1/2 duration)
Irregular groupings are notated above the duration line
Duration letters will always appear directly above the note/fret number it represents the
duration for.  Duration letters with no fret number below them represent rests.  Multi-
bar rests are notated in the form Wxn, where n is the number of bars to rest for.  Low
melody durations appear below the staff

Tablature Legend
----------------
 h   - hammer-on
 p   - pull-off
 b   - bend
 pb  - pre-bend
 r   - bend release (if no number after the r, then release immediately)
 /\  - slide into or out of (from/to "nowhere")
 s   - legato slide
 S   - shift slide
 - natural harmonic
[n]  - artificial harmonic
n(n) - tapped harmonic
 ~   - vibrato
 tr  - trill
 T   - tap
 TP  - trem. picking
 PM  - palm muting
\n/  - tremolo bar dip; n = amount to dip
 \n  - tremolo bar down
 n/  - tremolo bar up
/n\  - tremolo bar inverted dip
 =   - hold bend; also acts as connecting device for hammers/pulls
 <> - volume swell (louder/softer)
 x   - on rhythm slash represents muted slash
 o   - on rhythm slash represents single note slash

Misc Legend
-----------
 |  - bar
||  - double bar
||o - repeat start
o|| - repeat end
*|  - double bar (ending)
 :  - bar (freetime)
 $  - Segno
 &  - Coda
Tempo markers -  = BPM(8/16=s8/s16), where s8 = swing 8ths, s16 = swing 16ths

Tap to rate this tab
# A B C D E F G H I J K L M N O P Q R S T U V W X Y Z