Song name
# A B C D E F G H I J K L M N O P Q R S T U V W X Y Z

Coldplay - Don Quixote tab

Coldplay - Don Quixote/Spanish Rain
(not released yet)

Tabbed by Proxxx - gray1990@gmail.com

Tabs for electro
standard tuning

u can watch video from the concert where this song was played - 
http://www.youtube.com/watch?v=5OCVWScxjcE

Chords looks simple =)

         B          F#        F#sus           F#
e] 2---2---2--|-6---6---6--|-7---7---7--|-6---6---6--|
B] -4---4---4-|--7---7---7-|--7---7---7-|--7---7---7-|
G] --4---4----|---6---6----|---6---6----|---6---6----|
D] -----------|------------|------------|------------|
A] -----------|------------|------------|------------|
E] -----------|------------|------------|------------|

or chord B can be played on 7th fret

e]------------|-6---6---6--|-7---7---7--|-6---6---6--|
B]-7---7---7--|--7---7---7-|--7---7---7-|--7---7---7-|
G]--8---8---8-|---6---6----|---6---6----|---6---6----|
D]---9---9----|------------|------------|------------|
A]------------|------------|------------|------------|
E]------------|------------|------------|------------|

Oleee-ole-ole-ole!!!
Tap to rate this tab
# A B C D E F G H I J K L M N O P Q R S T U V W X Y Z