Coldplay - Green Eyes tab

Green Eyes
Coldplay
TUNING: EADGBD
CAPO on 2nd FRET
TAB is RELATIVE TO CAPO
Tabbed by Papps

As like my last tab, this isn't the strumming pattern but just the chords. You can 
listen to the song's instrumental here for the strumming pattern:
http://www.youtube.com/watch?v=29kQeeOdEz8

On chords like the E chords, it would be quick and easy to use your thumb on the bottom E string!

VERSE 1 (Honey you...)
    A     E        Bm
D|-0-0---0-0---0-0--0-0-|
B|-0-0---3-3---1-1--1-1-|
G|-0-0---0-0---2-2--2-0-| Last chord here is transition into next chord
D|-0-0---4-4---2-2--2-2-| REPEAT until VERSE 2
A|-2-2---5-5---0-0--0-3-|
E|-3-3---5-5------------|

VERSE 2 (The green eyes, yeah the spotlight...)
      Bm       D        A        E
D|-0-0-0-0--0-0-0-0--0-0-0-0--0-0-0-0-|
B|-1-1-1-1--1-1-1-1--0-0-0-0--3-3-3-3-|
G|-2-2-2-2--0-0-0-0--0-0-0-0--0-0-0-0-| Last chord here is transitional
D|-2-2-2-2--2-2-2-2--0-0-0-0--4-4-4-0-| REPEAT until VERSE 3
A|-0-0-0-0--3-3-3-3--2-2-2-2--5-5-5-5-|
E|-------------------3-3-3-3--5-5-5-5-|

VERSE 3 (I came here with a load...)
      Bm       D      A    G      Bm
D|-0-0-0-0--0-0-0-0--0-0--0-0--0-0-0-0-|
B|-1-1-1-1--1-1-1-1--0-0--1-1--0-0-0-0-|
G|-2-2-2-2--0-0-0-0--0-0--2-2--0-0-0-0-| Last chord here is transitional
D|-2-2-2-2--2-2-2-2--0-0--3-3--2-2-2-2-| REPEAT until REFRAIN
A|-0-0-0-0--3-3-3-3--2-2--3-3--2-2-2-0-|
E|-------------------3-3--1-1--0-0-0-0-|

REFRAIN (NOTE: HAMMER the B string)
      Bm 
D|-0-0-0-0-|
B|-1-1-1-1-|
G|-2-2-2-0-| Last chord here is transitional
D|-2-2-2-2-|
A|-0-0-0-3-|
E|---------|

VERSE 4 (Honey you are the sea...)
    A     E        Bm
D|-0-0---0-0---0-0--0-0-|
B|-0-0---3-3---1-1--1-1-|
G|-0-0---0-0---2-2--2-0-| Last chord here is transition into next chord
D|-0-0---4-4---2-2--2-2-| REPEAT until VERSE 5
A|-2-2---5-5---0-0--0-3-|
E|-3-3---5-5------------|

VERSE 5 (Oh that green eyes, you're the one that...)
      Bm       D        A        E
D|-0-0-0-0--0-0-0-0--0-0-0-0--0-0-0-0-|
B|-1-1-1-1--1-1-1-1--0-0-0-0--3-3-3-3-|
G|-2-2-2-2--0-0-0-0--0-0-0-0--0-0-0-0-| Last chord here is transitional
D|-2-2-2-2--2-2-2-2--0-0-0-0--4-4-4-0-| REPEAT until VERSE 6
A|-0-0-0-0--3-3-3-3--2-2-2-2--5-5-5-5-|
E|-------------------3-3-3-3--5-5-5-5-|

VERSE 6 (Cause I came here with a load...)
      Bm       D      A    G      Bm
D|-0-0-0-0--0-0-0-0--0-0--0-0--0-0-0-0-|
B|-1-1-1-1--1-1-1-1--0-0--1-1--0-0-0-0-|
G|-2-2-2-2--0-0-0-0--0-0--2-2--0-0-0-0-| Last chord here is transitional
D|-2-2-2-2--2-2-2-2--0-0--3-3--2-2-2-2-| REPEAT until ENDING
A|-0-0-0-0--3-3-3-3--2-2--3-3--2-2-2-0-|
E|-------------------3-3--1-1--0-0-0-0-|

ENDING (w/ lyrics)
    Green eyes, oh green eyes, oh wah ah oh, oh wah ah oh...
D|----0----------------0------------0--------------0---------|
B|----1----------------1------------0--------------1---------|
G|----2----------------2------------0--------------2---------|
D|----2----------------2------------0--------------2---------|
A|----0----------------0------------2--------------0---------|
E|----------------------------------3------------------------|

ENCORE (Honey you...)
    A     E     Bm  
D|-0-0---0-0---0-0--0-|
B|-0-0---3-3---1-1--1-|
G|-0-0---0-0---2-2--2-| Repeat twice, end on Bm
D|-0-0---4-4---2-2--2-|
A|-2-2---5-5---0-0--0-|
E|-3-3---5-5----------|
Tap to rate this tab
 
# A B C D E F G H I J K L M N O P Q R S T U V W X Y Z