Song name
# A B C D E F G H I J K L M N O P Q R S T U V W X Y Z

Coldplay - Hardest Part tab

-----------------------------------------------------------------------------
			  THE HARDEST PART - Coldplay
-----------------------------------------------------------------------------

Email: georgia_grillz@hotmail.com

I'm pretty sure the whole tab is correct,
but sorry if it is hard to match the notes to the words,
especially at the end, it's very difficult
with the three overlapping instruments.


Capo 3 (for entire song)

Em-022000
C-x32010
D-xx0232
G-320003
Am-002210

Intro                                               x4           x4
e|------------------0------0------0------0-|------0----|------0--------|
B|----------------1------0------1------1---|----1------|----3----------|
G|--2--0--2--4--0------0------0------0-----|--0--------|--0------------|
D|-----------------------------------------|-----------|---------------|
A|-----------------------------------------|-----------|---------------|
E|-----------------------------------------|-----------|---------------|


Em      C
And the hardest part
C   G               D
Was letting go, not taking part
Em      C           G      D
Was the hardest part

Em      C
And the strangest thing
C   G                D
Was waiting for that bell to ring
Em         C              G       D
It was the strangest start

C                  G       D
I could feel it go down
C                    G           D
Bittersweet, I could taste in my mouth
C                 G         D
Silver lining the cloud
     Em   C   G   D   Am
Oh and I
I wish that I could work it out

Guitar solo 1
e|--------------------------------------------------------------------------|
B|--------------------------------------------------------------------------|
G|--0-------0--2--4---0--2--4---0-------0-------0--2--4---0--2--4---0-------|
D|----2--4-------------------------4b-----4--2-------------------------4b---|
A|--------------------------------------------------------------------------|
E|--------------------------------------------------------------------------|

Em      C
And the hardest part
C   G               D
Was letting go, not taking part
Em         C             G      D
You really broke my heart

e|--------------------------------------------------------------------------|
B|--------------------------------------------------------------------------|
G|--0-0-0-------------0-0-0-2-2-2-2-2--0-0-0-2-2-2-2-2-4-4------------------|
D|---------4-4-4-4-4---------------------------------------4-4-4-4-4-4-4-4--|
A|--------------------------------------------------------------------------|
E|--------------------------------------------------------------------------|
     And I tried to sing               But I couldnít think of anything

e|--2-2-2-0-0-0-0-0-2-2-2-3-3-3-3-3-5-5-5-8-8-8-8-8-2-2-2-2-2-2-2-2---------|
B|--------------------------------------------------------------------------|
G|--------------------------------------------------------------------------|
D|--------------------------------------------------------------------------|
A|--------------------------------------------------------------------------|
E|--------------------------------------------------------------------------|
     And that was the hardest part


C                  G       D
I could feel it go down
C                    G           D
It left the sweetest taste in my mouth
C                 G         D
Silver lining the cloud
    Em  C  G   D   Am
Oh and I
    Em  C  G   D   Am
Oh and I
I wonder what itís all about
                                 x3
e|---0---0---0---0---0---0---0---0-|---0---0---0---0---0---0---0---0-----|
B|--1---1---0---0---1---1---1---1--|--1---1---1---1---3---3---3---3------|
G|-0---0---0---0---0---0---0---0---|-0---0---0---0---0---0---0---0-------|
D|---------------------------------|-------------------------------------|
A|---------------------------------|-------------------------------------|
E|---------------------------------|-------------------------------------|
(this riff repeats until the end of the song, except for on 'Oh and itís the hardest 
when the second bar repeats a few times.)

I wonder what itís all about
e|--------------------------------------------------------------------------|
B|--------------------------------------------------------------------------|
G|-5-5-5-5-5-5-5-7-4-4-4-4--4-4-2--2x16times--5x16times--7x16times----------|
D|--------------------------------------------------------------------------|
A|--------------------------------------------------------------------------|
E|--------------------------------------------------------------------------|

Everything I know is wrong
Everything I do, it's just comes undone
And everything is torn apart

Oh and itís the hardest part
Thatís the hardest part
Yeah thatís the hardest part
Thatís the hardest part

                                        x3                         x2
e|-----------------------------------------|--------------------------------|
B|-----------------------------------------|--------------------------------|
G|-5-5-5-5-5-5-5-7-4-4-4--4-4-2--2x16times-|--5x16times--7x16times----------|
D|-----------------------------------------|--------------------------------|
A|-----------------------------------------|--------------------------------|
E|-----------------------------------------|--------------------------------|
                                             (Oh and itís the hardest part)


 Outro                                    x4
e|------------------------------------------|
B|------------------------------------------|
G|-5-5-5-5-5-5-5-7-4-4-4--4-4-2--2x16times--|
D|------------------------------------------|
A|------------------------------------------|
E|------------------------------------------|

Piano Outro                             x4
e|--0-2-3-3---2--3-5--0---7-7-7-7-5-3------|
B|-----------------------------------------|
G|-----------------------------------------|
D|-----------------------------------------|
A|-----------------------------------------|
E|-----------------------------------------|
Tap to rate this tab
 
# A B C D E F G H I J K L M N O P Q R S T U V W X Y Z