Song name
# A B C D E F G H I J K L M N O P Q R S T U V W X Y Z

Coldplay - Warning Sign tab

Help us improve GuitareTab! Take a short survey!
WARNING SIGN: 100 % CORRECT TAB

I saw chris playing the song like this at glastonbury :

 CAPO 2 FRET !!!!!!! (chords are relative to capo)


Intro

e|---0----0----0----0-----0----------|
B|---1----1----1----1-----1----------|
G|---0----0----0----0-----0----------|
D|---2----0h2--2----0h2---2----------|
A|---3----3----3----3-----3----------|
E|---3----3----3----3-----3----------|

Verse

e|---0----0----0-----0-----------|
B|---6----1----8-----3-----------|
G|---0----0----0-----0-----------|
D|---7----2----9-----4-----------|
A|---8----3----10----5-----------|
E|---8----3----10----5-----------|

Chorus


e|---0----0-----0----0------------------------|
B|---1----0h1---8----3------------------------|
G|---0----0-----0----0------------------------|
D|---2----2-----9----4------------------------|
A|---3----2-----10---5------------------------|
E|---3----0-----10---5------------------------|


Outro


e|---0------0----0------0-----------------------------------------|
B|---8------6----6b7----1(optional)-------------------------------|
G|---0------0----0------0-----------------------------------------|
D|---9------7----7------2-----------------------------------------|
A|---10-----8----8------2-----------------------------------------|
E|---10-----8----8------0-----------------------------------------|
Related for Warning Sign tab