Song name
# A B C D E F G H I J K L M N O P Q R S T U V W X Y Z

Coldplay - Yellow tab

-----------------------------------------------------------------------------
			                               Yellow
                                 by
                              Coldplay
-----------------------------------------------------------------------------

Tabbed by: m0y
Email: mpc.psycho@gmail.com

Tuning: standard (EADGBE)

Note: I know this song was originally written on a different tuning but this
is my arrangement for the standard tuning, hope you like it and please rate
and comment! XD

Special marks:

b = bending
D = bending down (release)
/ = slide up
\ = slide down



Intro 

Guitar I

  B                    Bsus4      B                    Bsus4
|---------------|---------------|---------------|---------------|
|-4--4-4--4-4-4-|-4--4/5--5-5-5-|\4--4-4--4-4-4-|-4--4/5--5-5\4-|
|-4--4-4--4-4-4-|-4--4-4--4-4-4-|-4--4-4--4-4-4-|-4--4-4--4-4-4-|
|-4--4-4--4-4-4-|-4--4-4--4-4-4-|-4--4-4--4-4-4-|-4--4-4--4-4-4-|
|-2--2-2--2-2-2-|-2--2-2--2-2-2-|-2--2-2--2-2-2-|-2--2-2--2-2-2-|
|---------------|---------------|---------------|---------------|

  B                                   F#                
|-----------------|-----------------|-----------------|-----------------|
|-4-4-4-4-4-4-4-4-|-4-4-4-4-4-4-4-4-|-2-2-2-2-2-2-2-2-|-2-2-2-2-2-2-2-2-|
|-4-4-4-4-4-4-4-4-|-4-4-4-4-4-4-4-4-|-3-3-3-3-3-3-3-3-|-3-3-3-3-3-3-3-3-|
|-4-4-4-4-4-4-4-4-|-4-4-4-4-4-4-4-4-|-4-4-4-4-4-4-4-4-|-4-4-4-4-4-4-4-4-|
|-2-2-2-2-2-2-2-2-|-2-2-2-2-2-2-2-2-|-4-4-4-4-4-4-4-4-|-4-4-4-4-4-4-4-4-|
|-----------------|-----------------|-2-2-2-2-2-2-2-2-|-2-2-2-2-2-2-2-2-|

  E                                 1 B                                 
|-----------------|-----------------|-----------------|-----------------|
|-0-0-0-0-0-0-0-0-|-0-0-0-0-0-0-0-0-|-4-4-4-4-4-4-4-4-|-4-4-4-4-4-4-4-4-|
|-1-1-1-1-1-1-1-1-|-1-1-1-1-1-1-1-1-|-4-4-4-4-4-4-4-4-|-4-4-4-4-4-4-4-4-|
|-2-2-2-2-2-2-2-2-|-2-2-2-2-2-2-2-2-|-4-4-4-4-4-4-4-4-|-4-4-4-4-4-4-4-4-|
|-2-2-2-2-2-2-2-2-|-2-2-2-2-2-2-2-2-|-2-2-2-2-2-2-2-2-|-2-2-2-2-2-2-2-2-|
|-0-0-0-0-0-0-0-0-|-0-0-0-0-0-0-0-0-|-----------------|-----------------|

2 B
|-----------------|-----------------|
|-4-4-4-4-4/5-5-5-|-5\4-4-4-4-4-4-4-|
|-4-4-4-4-4-4-4-4-|-4-4-4-4-4-4-4-4-|
|-4-4-4-4-4-4-4-4-|-4-4-4-4-4-4-4-4-|
|-2-2-2-2-2-2-2-2-|-2-2-2-2-2-2-2-2-|
|-----------------|-----------------|


Guitar II 

|-7-7-7-7-7-7-7-7-|-7-7-7-7-7-7-7-7-|-11-11-11-11-11-11-11-11-|
|-0-0-0-0-0-0-0-0-|-0-0-0-0-0-0-0-0-|--0--0--0--0--0--0--0--0-|
|-9b9-9-9-9-9-9-9-|-9D9-9-9-9-9-9-9-|-13b13-13-13-13-13-13-13-|
|-----------------|-----------------|-------------------------|
|-----------------|-----------------|-------------------------|
|-----------------|-----------------|-------------------------|

|-11-11-11-11-11-11-11-11-|-2-2-2-2-2-2-2-2-|-2-2-2-2-2-2-2-2-|
|--0--0--0--0--0--0--0--0-|-0-0-0-0-0-0-0-0-|-0-0-0-0-0-0-0-0-|
|-13D13-13-13-13-13-13-13-|-4b4-4-4-4-4-4-4-|-4D4-4-4-4-4-4-4-|
|-------------------------|-----------------|-----------------|
|-------------------------|-----------------|-----------------|
|-------------------------|-----------------|-----------------|

|-7-7-7-7-7-7-7-7-|-7-7-7-7-7-7-7-7-|----------|
|-0-0-0-0-0-0-0-0-|-0-0-0-0-0-0-0-0-|----------|
|-9b9-9-9-9-9-9-9-|-9D9-9-9-9-9-9-9-|-8--------|
|-----------------|-----------------|----------|
|-----------------|-----------------|----------|
|-----------------|-----------------|----------|


Verses = Intro w/Guitar I and using 2 B

Chorus

Guitar I

  E                 G#m     F#
|-----------------|-----------------|
|-0-0-0-0-0-0-0-0-|-4-4-4-4-2-2-2-2-|
|-1-1-1-1-1-1-1-1-|-4-4-4-4-3-3-3-3-|
|-2-2-2-2-2-2-2-2-|-6-6-6-6-4-4-4-4-|
|-2-2-2-2-2-2-2-2-|-6-6-6-6-4-4-4-4-|
|-0-0-0-0-0-0-0-0-|-4-4-4-4-2-2-2-2-|

Guitar II

|-17-17-17-17-17--17-17-17-|-17-17-17-17-17-15-15-15/17-|
|--------------------------|----------------------------|
|-16-16-16-16-16--16-16-16-|-16-16-16-16-16-15-15-15/16-|
|--------------------------|----------------------------|
|--------------------------|----------------------------|
|--------------------------|----------------------------|


Outro

Guitar I

  B                               F#m                           
|---------------|---------------|---------------|---------------|
|-4--4-4--4-4-4-|-4--4-4--4-4-4-|-2--2-2--2-2-2-|-2--2-2--2-2-2-|
|-4--4-4--4-4-4-|-4--4-4--4-4-4-|-2--2-2--2-2-2-|-2--2-2--2-2-2-|
|-4--4-4--4-4-4-|-4--4-4--4-4-4-|-4--4-4--4-4-4-|-4--4-4--4-4-4-|
|-2--2-2--2-2-2-|-2--2-2--2-2-2-|-4--4-4--4-4-4-|-4--4-4--4-4-4-|
|---------------|---------------|-2--2-2--2-2-2-|-2--2-2--2-2-2-|

  E
|---------------|
|-0-------------|
|-1-------------|
|-2-------------|
|-2-------------|
|-0-------------|
Tap to rate this tab
 
# A B C D E F G H I J K L M N O P Q R S T U V W X Y Z