Coldplay - The Scientist tab

-----------------------------------------------------------------------------
The Scientist  -  Coldplay
-----------------------------------------------------------------------------

Tabbed by:    Sir Sidd Sixx
Email:      sirsiddsixx@web.de

Tuning:         Standard

I tried to play the main melody of song on the guitar, as closely as possible like Chris 
on the piano. Have fun with it!!


-----
INTRO
-----


e|5---5---5---5---6---6---6---6-8-|
H|6---6---6---6---6---6---6---6-6-|
G|7-7-7-7-7-7-7-7-7-7-7-7-7-7-7-7-|
D|--0---0---0---0---0---0---0-----|
A|--------------------------------|
E|--------------------------------|

e|------------------------------------------------|
H|10----10----10----10-----8-----8-----8-----8----|
G|10----10----10----10----10----10-----9-----9----|
D|10-10-10-10-10-10-10-10-10-10-10-10-10-10-10-10-|
A|----8-----8-----8-----8-----8-----8-----8-----8-|
E|------------------------------------------------|


-----
VERSE
-----
e|5---5---5---5---6---6---6---6---|
H|6---6---6---6---6---6---6---6---|
G|7-7-7-7-7-7-7-7-7-7-7-7-7-7-7-7-|
D|--0---0---0---0---0---0---0---0-|
A|--------------------------------|
E|--------------------------------|

e|------------------------------------------------|
H|10----10----10----10-----8-----8-----8-----8----|
G|10----10----10----10----10----10----10----10----|
D|10-10-10-10-10-10-10-10-10-10-10-10-10-10-10-10-|
A|----8-----8-----8-----8-----8-----8-----8-----8-|
E|------------------------------------------------|

-------
REFRAIN
-------

e|6---6---6---6---6---6---6---6---1---1---1---1---0---0---0---0---|
H|6---6---6---6---6---6---6---6---1---1---1---1---1---1---1---1---|
G|7---7---7---7---7---7---7---7---2---2---2---2---2---2---2---2---|
D|8---8---8---8---8---8---8---8---3-3-3-3-3-3-3-3-3-3-3-3-3-3-3-3-|
A|--8---8---8---8---8---8---8---8---3---3---3---3---3---3---3---3-|
E|--6---6---6---6---6---6---6---6---------------------------------|

e|6---6---6---6---6---6---6---6---1---1---1---1---0---0---0---0---|
H|6---6---6---6---6---6---6---6---1---1---1---1---1---1---1---1---|
G|7---7---7---7---7---7---7---7---2---2---2---2---2---2---2---2---|
D|8---8---8---8---8---8---8---8---3-3-3-3-3-3-3-3-3-3-3-3-0---0---|
A|--8---8---8---8---8---8---8---8---3---3---3---3---3---3---------|
E|--6---6---6---6---6---6---6---6---------------------------------|

e|0---0---0---0-1-3-|
H|1---1---1---1-1-1-|
G|0---0---0---0-0-0-|
D|2---2---2---2-2-2-|
A|3---3---3---3-----|
E|------------------|


------
BRIDGE
------

e|1---1---1---1---1---1---1---1---1---1---1---1---0---0---0---0---|
H|1---1---1---1---3---3---3---3---1---1---1---1---1---1---1---1---|
G|2---2---2---2---3---3---3---3---2---2---2---2---2---2---2---2---|
D|3---3---3---3---3-3-3-3-3-3-3-3-3-3-3-3-3-3-3-3-3-3-3-3-3-3-3-3-|
A|--3---3---3---3---1---1---1---1---3---3---3---3---3---3---3---3-|
E|--1---1---1---1-------------------------------------------------|

e|5---5---5---5---6---6---6---6-8-|
H|6---6---6---6---6---6---6---6-6-|
G|7-7-7-7-7-7-7-7-7-7-7-7-7-7-7-7-|
D|--0---0---0---0---0---0---0-----|
A|--------------------------------|
E|--------------------------------|

e|------------------------------------------------|
H|10----10----10----10-----8-----8-----8-----8----|
G|10----10----10----10----10----10-----9-----9----|
D|10-10-10-10-10-10-10-10-10-10-10-10-10-10-10-10-|
A|----8-----8-----8-----8-----8-----8-----8-----8-|
E|------------------------------------------------|


************************************

| /   slide up
| \   slide down
| h   hammer-on
| p   pull-off
| ~   vibrato
| +   harmonic
| x   Mute note
| b   Bend
| pb  Pre-bend
| br  Bend release
| pbr Pre-bend release
| brb Bend release bend

************************************
Tap to rate this tab
 
# A B C D E F G H I J K L M N O P Q R S T U V W X Y Z