Coldplay - Strawberry Swing tab

Hey guys. I just tabbed this out using the life version from the Roskilde Festival in 
This is Chris' part. Tell me what ya think.

Standard Tuning
Capo 1st Fret

They were sittin...........Sittin, in the strawberry swing
E--0------------------------0---------------------------------0--------|
B--0------------------------0---------------------------------0--------|
G--10----------------------5---------------------------------12--------|
D--11----------------------6---------------------------------13--------|
A--11----------------------6---------------------------------13--------|
E--9------------------------4---------------------------------11-------|

When its such, its such a perfect day.. Its such a perfect day
E------------0-----------------------------0---------0-----------------0----|
B------------0-----------------------------0---------0-----------------0----|
G------------8-----------------------------10-------6-----------------5-----|
D------------10---------------------------11--------8-----------------6-----|
A------------10---------------------------11--------8-----------------6-----|
E------------8-----------------------------9---------6-----------------4----|

Those are the chords for that beginning verse. Here's the bridge.

Its suchhhh a perfect day...

E-------0--------0--------0--------0--------|
B-------0--------0--------0--------0--------|
G-------6--------0--------6--------10-------|
D-------8--------3--------8--------11-------|
A-------8--------3--------8--------11-------|
E-------6--------0--------6--------9--------|


Now the sky. Could be Blue. I don't mind. Without you its a waste of time.
-------------*----------------*---------------*---------------------|
E-----------0------------------0--------------0------------0--------|
B-----------0------------------0--------------0------------0--------|
G-----------13----------------13-------------13----------10---------|
D-----------13*---------------13-------------13----------11---------|
A-----------11----------------10-------------9------------11--------|
E-----------X------------------X--------------X------------9--------|


For the * chords above, you can also substitute
E---0---0--0-|
B---0---0--2-|
G---5---5--3-|
D---6---6--4-|
A---6---6--4-|
E---4---3--2-|

In for those three chords (in my opinion sounds better because of that 2-4-4-3-2-0 chord 
Chris plays it the first way so Ill put that as the main version.

Don't forget to end on Ab!:
E--0
B--0(or 4)
G--5
D--6
A--6
E--4

Thanks guys enjoy! Tell me if you find any errors

P.S.
I made a youtube vid with the record track in the background. I think it sounds pretty 
Check it out below
http://www.youtube.com/watch?v=T0uHyZRIqhE&hd=1
Tap to rate this tab
 
# A B C D E F G H I J K L M N O P Q R S T U V W X Y Z