Coldplay - Parachutes tab

          -----------------------------------
                Parachutes - Coldplay
          -----------------------------------

Artist: Coldplay
Album: Parachutes
Song: Parachutes
Tabbed by: Tomorrow Will Be Better
Email: TomorrowWillBeBetter@live.com

Tuning: Standard EADGBe

Introduction
   B          Abm        B         Abm        Gbm
e|-----------------------------------------------------------------|
B|-----------------------------------------------------------------|
G|----8---8------4---4------8---8------4---4------2---2------2---2-|
D|---------------------------9----------6---------------------4----|
A|------9----------6----------9----------6----\4----4----4-----4---|
E|-7---------\4---------/7---------\4---------\2----------2--------|
   E
e|---------------|
B|---------------|
G|-----1---1-----|
D|---------------|
A|-2-----2----2--|
E|--0----------0-|

Verse
   B          Abm        B         Abm        Gbm
e|-----------------------------------------------------------------|
B|-----------------------------------------------------------------|
G|----8---8----4----4-------8---8------4---4------2---2------2---2-|
D|------------------------------------------------------------4----|
A|------9---------6-----------9----------6----------4----4-----4---|
E|-7---------\4---------/7---------\4---------\2----------2--------|
     In...    A stormy... I'll...    I'll... Always...
   E
e|--------------------|
B|--------------------|
G|------1---1-------1-|
D|-2------2-----------|
A|--2-----2----2------|
E|---0----------0-----|
  Always...

   B          Abm        B         Abm        Gbm
e|-----------------------------------------------------------------|
B|-----------------------------------------------------------------|
G|----8---8----4----4-------8---8------4---4------2---2------2---2-|
D|-----------------------------------------------------------------|
A|------9---------6-----------9----------6----------4----4-----4---|
E|-7---------\4---------/7---------\4---------\2----------2--------|
     Here...  And...      Here...    And...  Always...
   E
e|----------------|
B|----------------|
G|------1-----1---|
D|-------2--------|
A|--2-----2-------|
E|---0----------0-|
  Always...


Lyrics
In a haze, a stormy haze
I'll be 'round, I'll be loving you
Always, always

Here I am and I'll take my time
Here I am and I'll wait in line
Always, always


************************************

| /   slide up
| \   slide down
| h   hammer-on
| p   pull-off
| ~   vibrato
| +   harmonic
| x   Mute note
| b   Bend
| pb  Pre-bend
| br  Bend release
| pbr Pre-bend release
| brb Bend release bend

************************************

Tap to rate this tab
 
# A B C D E F G H I J K L M N O P Q R S T U V W X Y Z