Song name
# A B C D E F G H I J K L M N O P Q R S T U V W X Y Z

Coldplay - Trouble tab

This song is dedicate to Inari Villalobos, I promised you a song of Coldplay and i chose 
song for you. You and your family are so important to me, this is a little sample of my 
Enjoy it!. Arriba la Chona!!!

Coldplay  (Trouble)


Intro
     G           Em7         Bm7
E||--3--------|--0--------|--2--------|
B||--2--------|--3--------|--3--------|
G||--0--------|--0--------|--2--------| X2
D||--0--------|--2--------|--4--------|
A||--2--------|--2--------|--2--------|
E||--3--------|--0--------|--2--------|

Verse:

     G         Em7       Bm7       F7M       Am
E||--3------|--0------|--2------|--0------|--0------|
B||--2------|--3------|--3------|--1------|--1------|
G||--0------|--0------|--2------|--2------|--2------|
D||--0------|--2------|--4------|--3------|--2------|
A||--2------|--2------|--2------|---------|--0------|
E||--3------|--0------|--2------|---------|---------|


Chorus
      A                   Em7
E||---0----------------|--0----------------|
B||---2----------------|--3----------------|
G||---2----------------|--0----------------|
D||---2----------------|--2----------------|
A||---0----------------|--2----------------|
E||---0----------------|--0----------------|

End ("they spun a web for me...")
     Em           Fm         G          Em
E||--0--------|--2--------|--3--------|--0--------|
B||--0--------|--2--------|--3--------|--0--------|
G||--0--------|--2--------|--4--------|--0--------|
D||--2--------|--4--------|--5--------|--2--------|
A||--2--------|--4--------|--5--------|--2--------|
E||--0--------|--2--------|--3--------|--0--------|


Fig 1

E||---------|
B||--3------|
G||----0----| X3
D||------2--|
A||---------|
E||---------|

--------------------------------------------------------------

Intro Piano:

E||--7/8------7/8------7/8-------10/8-----7/8-----7/8---------|
B||------7--------7--------7----------7-------7-------7-------|
G||--------9--------9--------9----------9-------9-------9-----|
D||-----------------------------------------------------------|
A||-----------------------------------------------------------|
E||-----------------------------------------------------------|


           G       Em7      Bm7        G       Em7       Bm7

E||--7/8------7/8------7/8-------10/8------7/8------7/8-------|
B||------7--------7--------7----------7--------7--------7-----|
G||--------9--------9--------9----------9--------9--------9---|
D||-----------------------------------------------------------|
A||-----------------------------------------------------------|
E||-----------------------------------------------------------|


Verse:

G    Em7    Bm7
  Oh no, I see,

    F7M           Am            G
A spider web is tangled up with me,

       Em7    Bm7
And I lost my head,

     F7M                 Am               G
The thought of all the stupid things I'd said.

Piano:

 G       Em7      Bm7        G       Em7       Bm7

E||--7/8------7/8------7/8-------10/8------7/8------7/8-------|
B||------7--------7--------7----------7--------7--------7-----|
G||--------9--------9--------9----------9--------9--------9---|
D||-----------------------------------------------------------|
A||-----------------------------------------------------------|
E||-----------------------------------------------------------|


G    Em7         Bm7
  Oh no, what's this?

   F7M                 Am              G
A spider web, and I'm caught in the middle,

      Em7    Bm7
So I turn to run,

      F7M                 Am                G
The thought of all the stupid things I've done,


Chorus:

 A                               Em7    Fig 1
And I never meant to cause you trouble,

Electric Guitar 1:

E||---------------|
B||--7~10---------|
G||--------9~7----|
D||---------------|
A||---------------|
E||---------------|


A                         Em7  Fig 1
I never meant to do you wrong,

E||---------------|
B||--7~10---------|
G||--------9~7----|
D||---------------|
A||---------------|
E||---------------|

A                                  Em7  Fig 1
And I, well if I ever caused you trouble,

E||---------------|
B||--7~10---------|
G||--------9~7----|
D||---------------|
A||---------------|
E||---------------|

    A                               Em7
And oh no, I never meant to do you harm.


Electric Guitar 2:

E||---------------|
B||--7~10---------|
G||---------------|
D||---------------|
A||---------------|
E||---------------|

Piano:

 G       Em7      Bm7        G       Em7       Bm7

E||--7/8------7/8------7/8-------10/8------7/8------7/8-------|
B||------7--------7--------7----------7--------7--------7-----|
G||--------9--------9--------9----------9--------9--------9---|
D||-----------------------------------------------------------|
A||-----------------------------------------------------------|
E||-----------------------------------------------------------|


G   Em7    Bm7
  O no, I see,

Electric Guitar 3:

E||---------------|
B||--7-5-3-0------|
G||---------------|
D||---------------|
A||---------------|
E||---------------|

   F7M                Am           G
A spider web and it's me in the middle,

      Em7       Bm7
So I twist and turn,

E||--------|
B||--7-5-3-|
G||--------|
D||--------|
A||--------|
E||--------|

    F7M      Am           G
Here am I in my little bubble,

E||----------|
B||--9-9~11--|
G||----------|
D||----------|
A||----------|
E||----------|


Chorus:

             A                             Em7  Fig 1
Singing that I never meant to cause you trouble,

Repeat Electric Guitar 1:

 A                            Em7  Fig 1
And, I never meant to do you wrong,

Repeat Electric Guitar 1

 A                                 Em7  Fig 1
And I, well if I ever caused you trouble,

Repeat Electric Guitar 1

A                               Em7
Oh, no I never meant to do you harm.

Repeat Electric Guitar 2:

Acoustic Guitar:

G   Em7    Bm7  X4

Piano:

E||-------------|
B||--2----------|
G||----2-4------|  X4
D||-------------|
A||-------------|
E||-------------|

Electric Guitar:

G  Bm7  X4


Em       Fm     G  Fm  Em
   They spun a web for me,

      Fm     G  Fm  Em
They spun a web for me,

      Fm     G  Fm  Em
They spun a web for me.

E||-------------|
B||-------------|
G||--2--2-2-2-2-|
D||-------------|
A||-------------|
E||-------------|

Acoustic Guitar:

G   Em7    Bm7  X4

Piano:

E||-------------|
B||--2----------|
G||----2-4------|  X4
D||-------------|
A||-------------|
E||-------------|

Electric Guitar:

G  Bm7  X4

--------------------------------------------------

END
Tap to rate this tab
# A B C D E F G H I J K L M N O P Q R S T U V W X Y Z