Song name
# A B C D E F G H I J K L M N O P Q R S T U V W X Y Z

Coldplay - Yellow tab

 ~~Coldplay - Yellow~~

           ||    CAPO 2ND FRET  ||  BUT FOR TABS (( PRETEND NO CAPO )




                    alex.k.taylor (y)



Badd11*
E|-|---------------------------------------------------|-|
B|-|---------------------------------------------------|-|
G|-|--9/11-11-11-11-11-11-11-11-11---9-9-9-9-9-9-9-9---|-|
D|-|---------------------------------------------------|-|
A|-|---------------------------------------------------|-|
e|-|---------------------------------------------------|-|

       F#7*
E|-|----------------------------------------------------|-|
B|-|----------------------------------------------------|-|
G|-|--15-15-15-15-15-15-15-15--13-13-13-13-13-13-13-13--|-|
D|-|----------------------------------------------------|-|
A|-|----------------------------------------------------|-|
e|-|----------------------------------------------------|-|

      E*
E|-|--------------------------------------------|-|
B|-|--------------------------------------------|-|
G|-|--6-6-6-6-6-6-6-6-6-6-6-6--4-4-4-4-4-4-4-4--|-|
D|-|--------------------------------------------|-|
A|-|--------------------------------------------|-|
e|-|--------------------------------------------|-|

      Badd11*                                              
E|-|-------------------------------------------------|-|
B|-|-------------------------------------------------|-|
G|-|--11-11-11-11-11-11-11-11--9-9-9-9-9-9-9-9--<8>--|-|
D|-|-------------------------------------------------|-|
A|-|-------------------------------------------------|-|
e|-|-------------------------------------------------|-|

VERSE 1:

A                                         E
 look at the stars, look how they shine for you
		    Dsus2
and everything you do, yeah they were all yellow
A                               E
 i came along, i wrote a song for you
                        Dsus2
and all the things you do and it was called yellow
A               E                                Dsus2
 So then I took my turn, oh what a thing to have done
                     A   Asus4   A
and it was all yellow



CHORUS 1:

D             F#m              E           D
 and your ski-in, oh yeah your skin and bo-ones
       F#m            E        D
turn i-into something beautifu-ul
            F#m           E           D                       
and you kno-ow you know i love you so-o
Dsus2                  (A)
 you know i love you so-o

    Badd11*
E|-|---------------------------------------------------|-|
B|-|---------------------------------------------------|-|
G|-|--9/11-11-11-11-11-11-11-11-11---9-9-9-9-9-9-9-9---|-|
D|-|---------------------------------------------------|-|
A|-|---------------------------------------------------|-|
e|-|---------------------------------------------------|-|

       F#7*
E|-|----------------------------------------------------|-|
B|-|----------------------------------------------------|-|
G|-|--15-15-15-15-15-15-15-15--13-13-13-13-13-13-13-13--|-|
D|-|----------------------------------------------------|-|
A|-|----------------------------------------------------|-|
e|-|----------------------------------------------------|-|

      E*
E|-|--------------------------------------------|-|
B|-|--------------------------------------------|-|
G|-|--6-6-6-6-6-6-6-6-6-6-6-6--4-4-4-4-4-4-4-4--|-|
D|-|--------------------------------------------|-|
A|-|--------------------------------------------|-|
e|-|--------------------------------------------|-|

      Badd11*                                              
E|-|-------------------------------------------------|-|
B|-|-------------------------------------------------|-|
G|-|--11-11-11-11-11-11-11-11--9-9-9-9-9-9-9-9--<8>--|-|
D|-|-------------------------------------------------|-|
A|-|-------------------------------------------------|-|
e|-|-------------------------------------------------|-|
\
VERSE 2:

A                                 E
 i swam across, i jumped across for you
                    Dsus2
oh what a thing to do, cos you were all yellow
A                               E
 i drew a line, i drew a line for you
                    Dsus2
oh what a thing to do
                     A   Asus4   A
and it was all yellow



CHORUS 2:

D             F#m              E           D
 and your ski-in, oh yeah your skin and bo-ones
       F#m            E        D
turn i-into something beautifu-ul
            F#m            E            D                       
and you kno-ow for you i'd bleed myself dry
Dsus2                    (A)
 for you i'd bleed myself dry

    Badd11*
E|-|---------------------------------------------------|-|
B|-|---------------------------------------------------|-|
G|-|--9/11-11-11-11-11-11-11-11-11---9-9-9-9-9-9-9-9---|-|
D|-|---------------------------------------------------|-|
A|-|---------------------------------------------------|-|
e|-|---------------------------------------------------|-|

       F#7*
E|-|----------------------------------------------------|-|
B|-|----------------------------------------------------|-|
G|-|--15-15-15-15-15-15-15-15--13-13-13-13-13-13-13-13--|-|
D|-|----------------------------------------------------|-|
A|-|----------------------------------------------------|-|
e|-|----------------------------------------------------|-|



E|-|-------------------------------------------|-|
B|-|--------------------------------------------|-|
G|-|--6-6-6-6-6-6-6-6-6-6-6-6--4-4-4-4-4-4-4-4--|-|
D|-|--------------------------------------------|-|
A|-|--------------------------------------------|-|
e|-|--------------------------------------------|-|

    Badd11*
E|-|---------------------------------------------------|-|
B|-|---------------------------------------------------|-|
G|-|--9/11-11-11-11-11-11-11-11-11---9-9-9-9-9-9-9-9---|-|
D|-|---------------------------------------------------|-|
A|-|---------------------------------------------------|-|
e|-|---------------------------------------------------|-|

    Badd11*
E|-|---------------------------------------------------|-|
B|-|---------------------------------------------------|-|
G|-|--9/11-11-11-11-11-11-11-11-11---9-9-9-9-9-9-9-9---|-|
D|-|---------------------------------------------------|-|
A|-|---------------------------------------------------|-|
e|-|---------------------------------------------------|-|


       F#7*
E|-|----------------------------------------------------|-|
B|-|----------------------------------------------------|-|
G|-|--15-15-15-15-15-15-15-15--13-13-13-13-13-13-13-13--|-|
D|-|----------------------------------------------------|-|
A|-|----------------------------------------------------|-|
e|-|----------------------------------------------------|-|

E|-|--------------------------------------------|-|
B|-|--------------------------------------------|-|
G|-|--6-6-6-6-6-6-6-6-6-6-6-6--4-4-4-4-4-4-4-4--|-|
D|-|--------------------------------------------|-|
A|-|--------------------------------------------|-|
e|-|--------------------------------------------|-|


E|-|---------------------------------------------------|-|
B|-|---------------------------------------------------|-|
G|-|--9/11-11-11-11-11-11-11-11-11---9-9-9-9-9-9-9-9---|-|
D|-|---------------------------------------------------|-|
A|-|---------------------------------------------------|-|
e|-|---------------------------------------------------|-|


       F#7*
E|-|----------------------------------------------------|-|
B|-|----------------------------------------------------|-|
G|-|--15-15-15-15-15-15-15-15--13-13-13-13-13-13-13-13--|-|
D|-|----------------------------------------------------|-|
A|-|----------------------------------------------------|-|
e|-|----------------------------------------------------|-|



E|-|--------------------------------------------|-|
B|-|--------------------------------------------|-|
G|-|--6-6-6-6-6-6-6-6-6-6-6-6--4-4-4-4-4-4-4-4--|-|
D|-|--------------------------------------------|-|
A|-|--------------------------------------------|-|
e|-|--------------------------------------------|-|



                             

A                                         Em
 look at the stars, look how they shine for you
                       D
and all the things you do
Tap to rate this tab
 
# A B C D E F G H I J K L M N O P Q R S T U V W X Y Z