Guitaretab - guitar tabs
Song name
# A B C D E F G H I J K L M N O P Q R S T U V W X Y Z

Coldplay - The Scientist tab

-------------------------------------------------------------------------------
			   THE SCIENTIST - COLD PLAY
-------------------------------------------------------------------------------
Tabbed by: BLOODYafterlife


THIS CAN BE DONE ON EITHER ELECTRIC OR ACOUSTIC BUT PERSONALLY I PREFER IT ON ACOUSTIC.
IF THERE ARE ANY ERRORS PLEASE POST SOME COMMENTS

                                       :)


Verse 1

E|------------------|-6---------------|-1---------------|-1---------------|
A|--5---------------|-----------------|-----------------|-----------------|
D|--------7-----7---|-------8-----8---|-------3-----3---|-------3-----3---|
G|----------7-----7-|---------7-----7-|---------2-----2-|---------1-----1-|
B|----6-------6-----|---6-------6-----|---1-------1-----|---1-------1-----|
E|------5-----------|-----6-----------|-----1-----------|-----1-----------|
                                                                         x4
Chorus 1

E|-6----------------|-6---------------|-1---------------|-1---------------|
A|------------------|-----------------|-----------------|-----------------|
D|-------8-----8----|-------8-----8---|-------3-----3---|-------3-----3---|
G|---------7-----7--|---------7-----7-|---------2-----2-|---------1-----1-|
B|---6-------6------|---6-------6-----|---1-------1-----|---1-------1-----|
E|-----6------------|-----6-----------|-----1-----------|-----1-----------|
                                                                         x2

   C/G   C/G   C/G   C/G   C/G

E|--3--3--3--3--3--3--3--3--3--|
A|--3-----3-----3-----3-----3--|
D|--2-----2-----2-----2-----2--|
G|--0-----0-----0-----0-----0--|
B|--0-----0-----0-----0-----0--|
E|--0-----0-----0-----0-----0--|


Interlude

   F   F   F   F   B   B   B   B   F   F   F   F  Fsus4

E|-1-1-1-1-1-1-1-|-6-6-6-6-6-6-6-|-1-1-1-1-1-1-1-|-1-1-1-1-1-1-1-|
A|-3---3---3---3-|-8---8---8---8-|-3---3---3---3-|-3---3---3---3-|
D|-3---3---3---3-|-8---8---8---8-|-3---3---3---3-|-3---3---3---3-|
G|-2---2---2---2-|-7---7---7---7-|-2---2---2---2-|-1---1---1---1-|
B|-1---1---1---2-|-6---6---6---6-|-1---1---1---1-|-1---1---1---1-|
E|-1---1---1---1-|-6---6---6---6-|-1---1---1---1-|-1---1---1---1-|

Verse 2

   Dm  Dm  Dm  Dm  B   B   B   B   F   F   F   F   Fsus4
[ Tab from: http://www.guitaretab.com/c/coldplay/269749.html ]
E|---------------|-6-6-6-6-6-6-6-|-1-1-1-1-1-1-1-|-1-1-1-1-1-1-1-|
A|-5-5-5-5-5-5-5-|-8---8---8---8-|-3---3---3---3-|-3---3---3---3-|
D|-7---7---7---7-|-8---8---8---8-|-3---3---3---3-|-3---3---3---3-|
G|-7---7---7---7-|-7---7---7---7-|-2---2---2---2-|-1---1---1---1-|
B|-6---6---6---6-|-6---6---6---6-|-1---1---1---1-|-1---1---1---1-|
E|-5---5---5---5-|-6---6---6---6-|-1---1---1---1-|-1---1---1---1-|
                                                                x4

Chorus

   B   B   B   B   B   B   B   B   F   F   F   F   Fsus4

E|-6-6-6-6-6-6-6-|-6-6-6-6-6-6-6-|-1-1-1-1-1-1-1-|-1-1-1-1-1-1-1-|
A|-8---8---8---8-|-8---8---8---8-|-3---3---3---3-|-3---3---3---3-|
D|-8---8---8---8-|-8---8---8---8-|-3---3---3---3-|-3---3---3---3-|
G|-7---7---7---7-|-7---7---7---7-|-2---2---2---2-|-1---1---1---1-|
B|-6---6---6---6-|-6---6---6---6-|-1---1---1---1-|-1---1---1---1-|
E|-6---6---6---6-|-6---6---6---6-|-1---1---1---1-|-1---1---1---1-|

    C/G   C/G   C/G   C/G   C/G

E|--3--3--3--3--3--3--3--3--3--|
A|--3-----3-----3-----3-----3--|
D|--2-----2-----2-----2-----2--|
G|--0-----0-----0-----0-----0--|
B|--0-----0-----0-----0-----0--|
E|--0-----0-----0-----0-----0--|
                              X2

Interlude

  F   F   F   F   B   B   B   B   F   F   F   F   Fsus4

E|-1-1-1-1-1-1-1-|-6-6-6-6-6-6-6-|-1-1-1-1-1-1-1-|-1-1-1-1-1-1-1-|
A|-3---3---3---3-|-8---8---8---8-|-3---3---3---3-|-3---3---3---3-|
D|-3---3---3---3-|-8---8---8---8-|-3---3---3---3-|-3---3---3---3-|
G|-2---2---2---2-|-7---7---7---7-|-2---2---2---2-|-1---1---1---1-|
B|-1---1---1---3-|-6---6---6---6-|-1---1---1---1-|-1---1---1---1-|
E|-1---1---1---3-|-6---6---6---6-|-1---1---1---1-|-1---1---1---1-|

   Dm  Dm  Dm  Dm  B   B   B   B   F   F   F   F   Fsus4

E|---------------|-6-6-6-6-6-6-6-|-1-1-1-1-1-1-1-|-1-1-1-1-1-1-1-|
A|-5-5-5-5-5-5-5-|-8---8---8---8-|-3---3---3---3-|-3---3---3---3-|
D|-7---7---7---7-|-8---8---8---8-|-3---3---3---3-|-3---3---3---3-|
G|-7---7---7---7-|-7---7---7---7-|-2---2---2---2-|-1---1---1---1-|
B|-6---6---6---6-|-6---6---6---6-|-1---1---1---1-|-1---1---1---1-|
E|-5---5---5---5-|-6---6---6---6-|-1---1---1---1-|-1---1---1---1-|


Outro

   Dm  Dm  Dm  Dm  B   B   B   B   F   F   F   F   Fsus4

E|---------------|-6-6-6-6-6-6-6-|-1-1-1-1-1-1-1-|-1-1-1-1-1-1-1-|
A|-5-5-5-5-5-5-5-|-8---8---8---8-|-3---3---3---3-|-3---3---3---3-|
D|-7---7---7---7-|-8---8---8---8-|-3---3---3---3-|-3---3---3---3-|
G|-7---7---7---7-|-7---7---7---7-|-2---2---2---2-|-1---1---1---1-|
B|-6---6---6---6-|-6---6---6---6-|-1---1---1---1-|-1---1---1---1-|
E|-5---5---5---5-|-6---6---6---6-|-1---1---1---1-|-1---1---1---1-|

   Dm  Dm  Dm  Dm  B   B   B   B   F   F   F   F

E|---------------|-6-6-6-6-6-6-6-|-1-1-1-1-1-1-1-|
A|-5-5-5-5-5-5-5-|-8---8---8---8-|-3---3---3---3-|
D|-7---7---7---7-|-8---8---8---8-|-3---3---3---3-|
G|-7---7---7---7-|-7---7---7---7-|-2---2---2---2-|
B|-6---6---6---6-|-6---6---6---6-|-1---1---1---1-|
E|-5---5---5---5-|-6---6---6---6-|-1---1---1---1-|
                                                X3
Related for The Scientist tab
The Scientist chords by Coldplay