Song name
# A B C D E F G H I J K L M N O P Q R S T U V W X Y Z

Coldplay - In My Place tab

coldplay - in my place - solo guitar.


----3-------3-----------0-----0----3--------3------------0-------0--|
----1-------1-------3------3-------0------------3/5--3---3---3------|
----0---0---0---0---0--------------0----0------------0--------------|
--------------------0-----------------------------------------------|
----3---------------2-----------------------------------------------|
-----------------------------------0-----------------3--------------|


----3-------3-----------0-----0----3--------3------------0-------0--|
----1-------1-------3------3-------0------------3/5--3---3---3------|
----0---0---0---0---0--------------0----0------------0--------------|
--------------------0-----------------------------------------------|
----3---------------2-----------------------------------------------|
-----------------------------------0-----------------3--------------|

---------------0---0-------------0---0------------------3--1--1--0--0-|
----1-------3--1---0----------3-------------------------0--0--0-----1-|
----0----0--0---------------0-------------------0---0---0-------------|
--------2-----------------0-----------------2-------------------------|
----3------------------2----------------------------------------------|
-----------------------------------------0--------------3-------------|

---------------0---0--------------------------------------------------|
-----------3-1-----------------1-------------------------------0------|
---------0-------------------0-------------------0-----------0--------|
-------2-------------------2--------2---------2-----2------0-------0--|
---3-------------------0----------------------------------------------|
------------------------------------------0-------------3-------------|

----------------0---0------------0---0-----------------3---1--1--0--0-|
---1---------3--1---0----------3-----------------------0---0--0-----1-|
---0------0--0---------------0-----------------0---0---0--------------|
--------2------------------0----------------2-------------------------|
------------------------2---------------------------------------------|
---3------------------------------------0--------------3--------------|


---------------0---0--------------------------------------------------|
-----------3-1-----------------1-------------------------------0------|
---------0-------------------0-------------------0-----------0--------|
-------2-------------------2--------2---------2-----2------0-------0--|
---3-------------------0----------------------------------------------|
------------------------------------------0-------------3-------------|

------------------5---------------5-----3------3----3---3------------|
-------------1-----------------1--------5----------------------0-----|
----------2------------------2----------5----------------------0-----|
--------3------------------3-----------------------------------0-----|
----------------------------------------3------5----3---2------------|
---1-------------------1---------------------------------------3-----|


-----------------5------------------5-----3------3----3---3------------|
-----------------1---------------1--------5----------------------0-----|
--------2---2------------------2----------5----------------------0-----|
----------3------------------3-----------------------------------0-----|
------------------------------------------3------5----3---2------------|
---1-------------------1-----------------------------------------3-----|


-----------------5------------------5-----3------3----3---3------------|
-----------------1---------------1--------5----------------------0-----|
--------2---2------------------2----------5----------------------0-----|
----------3------------------3-----------------------------------0-----|
------------------------------------------3------5----3---2------------|
---1-------------------1-----------------------------------------3-----|

-----------------------------------------------------------------------|
--------------------------------1--------------------------------------|
---------2--------------------------2--0----------0-------------0------|
---------3---3-------------3-------------------0-------------0---------|
-----------------------------------------------------------------------|
---1--------------1---1--------------------3-----------3--3---------3--|



----3-------3-----------0-----0----3--------3------------0-------0--|
----1-------1-------3------3-------0------------3/5--3---3---3------|
----0---0---0---0---0--------------0----0------------0--------------|
--------------------0-----------------------------------------------|
----3---------------2-----------------------------------------------|
-----------------------------------0-----------------3--------------|


----3-------3-----------0-----0----3--------3------------0-------0--|
----1-------1-------3------3-------0------------3/5--3---3---3------|
----0---0---0---0---0--------------0----0------------0--------------|
--------------------0-----------------------------------------------|
----3---------------2-----------------------------------------------|
-----------------------------------0-----------------3--------------|

---0---------0---0--0---------------0--0---------------0-------0--0-1--0-|
---1---------1---1--0-----------3------------------0-------3------3----3-|
---0--------------------------0------------------0---------0-------------|
--------2-------------------0------------------2-----------0-------------|
---3---------------------2-----------------------------------------------|
--------------------------------------------0--------------3-------------|

---0-------------0--0--------------0------------------0-------0---0-1--0-|
---1---------------------------------3--------------------3---3---3----3-|
---0--------0------------------0-----------------0--------0---0---0----0-|
---------2-------------------0---------------2------------0--------------|
---3---------------------2-----------------------------------------------|
------------------------------------------0---------------3--------------|


---0---------0---0--0---------------0--0---------------0-------0--0-1--0-|
---1---------1---1--0-----------3------------------0-------3------3----3-|
---0--------------------------0------------------0---------0-------------|
--------2-------------------0------------------2-----------0-------------|
---3---------------------2-----------------------------------------------|
--------------------------------------------0--------------3-------------|


---0-------------0--0----------------0----------------0--------0--------|
---1----------------------------------3-------------------3--------3--1-|
---0--------0-------------------0----------------0--------0-------------|
---------2-------------------2---------------2------------0-------------|
---3----------------------0---------------------------------------------|
------------------------------------------0---------------3-------------|


----------------0---0------------0---0----------------------------------|
----1-------3--1---0----------3---------------------1----1--------------|
----0----0--0---------------0-------------------0--------0---2--2--0--0-|
--------2-----------------0-----------------2---------------------------|
----3------------------2------------------------------------------------|
-----------------------------------------0---------------3--------------|


------------------0---0-------------------------------------------------|
--------------3--1----------------1---------0----------0----------1-----|
-----------0----------------------------------------0-------------------|
---------2--------------------2-------2----------2-------------0--------|
----3--------------------0------------------0---------------------------|
------------------------------------------------------------3-----------|

-------x-|
-------x-|
-------x-|
-----2-x-|
---3---x-|
-------x-|
Tap to rate this tab
 
# A B C D E F G H I J K L M N O P Q R S T U V W X Y Z