Coldplay - Parachutes tab

          C                   Am                  C
E -------------------|-------------------|-------------------|
B -----5-----5-------|-----1-----1-------|-----5-----5-------|
G -------------------|-------------------|-------------------|
D ---------5---------|---------2---------|---------5---------|
A ---3---3-----------|---0---0-----------|---3---3-----------|
E -------------------|-------------------|-------------------|
          Am                  Gm                   Gm
E -------------------|-------------------|-------------------|
B -----1-----1-------|-------------------|-------------------|
G -------------------|-----3-----3-------|-----3-----3-------|
D -------------------|---------5---------|---------5---------|
A ---0---0-----------|-------------------|-------------------|
E -------------------|---3---3-----------|---3---3-----------|
          F                    F
E -------------------|-------------------|
B -------------------|-------------------|
G -----2-----2-------|-----2-----2-------|
D ---------3---------|---------3---------|
A -------------------|-------------------|
E ---1---1-----------|---1---1-----------|
Tap to rate this tab
 
# A B C D E F G H I J K L M N O P Q R S T U V W X Y Z