Coldplay - Life In Technicolor Ii chords

Highlighted       Show chord diagrams
-----------------------------------------------------------------------------
	               Life In Technicolor II - Coldplay
-----------------------------------------------------------------------------

Tabbed by: HEMA90 (chords) & FF764 (tab)
Email: hema90@gmail.com

Tuning: standard (eBGDAE)

I wasn't quite happy with the chord schemes on here, so we decided to create our own. If 
you want to play a simpler version, just play A where it says Amaj7, and E where it 
says Esus4.

-----

Main riff (intro + verse):

e|---------0-----------2-2-0-------------0-----------4-4-0----------------|
B|---0---2---------0---------------0---2---------0------------------------|
G|-2---2-----2---2---2-------2---2---2-----2---2---2--------2-------------|
D|------------------------------------------------------------------------|
A|------------------------------------------------------------------------|
E|------------------------------------------------------------------------|

Alternative riff (chorus):

e|-5-7-5-9---7-5-7-5-7-5-9-9-7-5---5-7-5-9---7-5-7-5-7-5-9-9-7-5----------|
B|------------------------------------------------------------------------|
G|------------------------------------------------------------------------|
D|------------------------------------------------------------------------|
A|------------------------------------------------------------------------|
E|------------------------------------------------------------------------|


Intro:
Play main riff 10x
Rhythm guitar comes in on 3rd set, playing F#m D A A F#m D A Amaj7, except the last set 
before vocals start, which is Esus4, E A A
Drums would come in on 7th set.

-----
          F#m       D                A            A
There's a wild wind blowing down the corner of my street
      F#m             D              A       Amaj7
Every night there the headlights are glowing
          F#m      D             A        A
There's a cold war coming on the radio, I heard
Esus4        E       A
Baby, it's a violent world

   F#m         D      A  A
Oh love, don't let me go
          F#m               D             A     Amaj7
Won't you take me where the street lights glow?
        F#m     D               A               A
I could hear it coming, I could hear the sirens sound
       Esus4      E         A      A
Now my feet won't touch the ground

F#m         D             A                   A
Time came a-creeping, oh, and time's a loaded gun
      F#m       D      A     Amaj7
Every road is a ray of light
        F#m            D             A             A
It goes ooo-ho-hooo-ho-hooo-ho-hoon, time only can lead you on
       Esus        E         A    A
Still, it's such a beautiful night

   F#m         D      A  A
Oh love, don't let me go
          F#m               D             A     Amaj7
Won't you take me where the street lights glow?
      F#m     D             A           A
I can hear it coming like a serenade of sound
       Esus4      E         A      A
Now my feet won't touch the ground

F#m D A A

      F#m         D     A  Amaj7
oh-ho-hoooo-ho-ho-haaaa-ha-oh

F#m        D
Gravity, release me
          A            A
And don't ever hold me down
       Esus4      E         A     A
Now my feet won't touch the ground
Tap to rate this tab
 
# A B C D E F G H I J K L M N O P Q R S T U V W X Y Z