Coldplay - Every Teardrop Is A Waterfall tab

Tabbed by: henners22
Song: Every Teardrop Is a Waterfall
Artist: Coldplay
Album: Every Teardrop Is a Waterfall - Single

Intro:

|---5-5-4-4-4--5-5-4-4-4--7-7-5-5-5--7-7-5-5-5-|
|---3-3-3-3-3--3-3-3-3-3--5-5-5-5-5--5-5-5-5-5-|
|----------------------------------------------|
|----------------------------------------------|
|---0-0-0-0-0--0-0-0-0-0-----------------------|
|-------------------------0-0-0-0-0--0-0-0-0-0-|

Verse 1: 

I turn the music up, I got my records on
I shut the world outside until the lights come on
Maybe the streets alight, maybe the trees are gone
But I feel my heart start beating to my favorite song
|---5-5-4-4-4--5-5-4-4-4--7-7-5-5-5--7-7-5-5-5-|
|---3-3-3-3-3--3-3-3-3-3--5-5-5-5-5--5-5-5-5-5-|
|----------------------------------------------|
|----------------------------------------------|
|---0-0-0-0-0--0-0-0-0-0-----------------------|
|-------------------------0-0-0-0-0--0-0-0-0-0-|
D/F
And all the kids they dance, all the kids all night
Asus2
Until Monday morning feels another life
A
I turn the music up, I'm on a roll this time
D
And heaven is in sight

Solo:

|-12-9-12-14>12-12-12-14>12-12-14-17-12-12-9-12-14>12-17-12-12-12-14>12-14-|
|--------------------------------------------------------------------------|
|--------------------------------------------------------------------------|
|--------------------------------------------------------------------------|
|--------------------------------------------------------------------------|
|--------------------------------------------------------------------------|

|-17-12-12-9-12-14>12-14-17-12-12-12-14>12-12-12-14-17-12-12-9-12-14>12-12-|
|--------------------------------------------------------------------------|
|--------------------------------------------------------------------------|
|--------------------------------------------------------------------------|
|--------------------------------------------------------------------------|
|--------------------------------------------------------------------------|

|-14-17-12-12-9-12-14>12-14-17-|
|------------------------------|
|------------------------------|
|------------------------------|
|------------------------------|
|------------------------------|

Verse 2:

I turn the music up, I got my records on
From underneath a rubble sing a rebel song
Don't want to see another generation drop
I'd rather be a comma than a full stop
|---5-5-4-4-4--5-5-4-4-4--7-7-5-5-5--7-7-5-5-5-|
|---3-3-3-3-3--3-3-3-3-3--5-5-5-5-5--5-5-5-5-5-|
|----------------------------------------------|
|----------------------------------------------|
|---0-0-0-0-0--0-0-0-0-0-----------------------|
|-------------------------0-0-0-0-0--0-0-0-0-0-|

D/F
Maybe I'm in the black, maybe I'm on my knees
Asus2
Maybe I'm in the gap between the two trapezes
A
But my heart is beating and my pulses start
D
Cathedrals in my heart

Chorus:
D/F            A
As we saw oh this light
Asus2
I swear you emerge blinking into
D
To tell me it's alright
D/F         A
As we soar walls
Asus2
Every siren is a symphony
D
And every tear's a waterfall
|-12-9-12-14>12-12-12-14>12-12-14-17-12-12-9-12-14>12-17-12-12-12-14>12-14-|
|--------------------------------------------------------------------------|
|--------------------------------------------------------------------------|
|--------------------------------------------------------------------------|
|--------------------------------------------------------------------------|
|--------------------------------------------------------------------------|

|-17-12-12-9-12-14>12-14-17-12-12-12-14>12-12-12-14-17-12-12-9-12-14>12-12-|
|--------------------------------------------------------------------------|
|--------------------------------------------------------------------------|
|--------------------------------------------------------------------------|
|--------------------------------------------------------------------------|
|--------------------------------------------------------------------------|

|-14-17-12-12-9-12-14>12-14-17-|
|------------------------------|
|------------------------------|
|------------------------------|
|------------------------------|
|------------------------------|

Is a waterfall, ah
Is a waterfall, ah
Is always a waterfall
Every tear is always a waterfall, ah

Asus2
So you can hurt, hurt me bad
Asus2
But still I'll raise the flag


Oh, 
It was a wa-ah-ah-ah, waterfall
A wa-ah-ah-ah, waterfall
|-12-9-12-14>12-12-12-14>12-12-14-17-12-12-9-12-14>12-17-12-12-12-14>12-14-|
|--------------------------------------------------------------------------|
|--------------------------------------------------------------------------|
|--------------------------------------------------------------------------|
|--------------------------------------------------------------------------|
|--------------------------------------------------------------------------|

|-17-12-12-9-12-14>12-14-17-12-12-12-14>12-12-12-14-17-12-12-9-12-14>12-12-|
|--------------------------------------------------------------------------|
|--------------------------------------------------------------------------|
|--------------------------------------------------------------------------|
|--------------------------------------------------------------------------|
|--------------------------------------------------------------------------|

|-14-17-12-12-9-12-14>12-14-17-|
|------------------------------|
|------------------------------|
|------------------------------|
|------------------------------|
|------------------------------|


Every tear
Every tear
Every teardrop is a waterfall

Every tear
Every tear
Every teardrop is a waterfall
|--5-5-4-4-4-4-5-5-4-4-4-4-5-5-4-4-4-4-7-7-4-4-4-4-|
|--3-3-3-3-3-3-3-3-3-3-3-3-3-3-3-3-3-3-5-5-5-5-5-5-|
|--------------------------------------------------| x6
|--------------------------------------------------|
|--0-0-0-0-0-0-0-0-0-0-0-0-0-0-0-0-0-0-------------|
|--------------------------------------0-0-0-0-0-0-|

*Drums end the song*

this tab is advanced because the guitar solo is very fast.
comments please to improve it, its probably not right but its what i think it is:)
thanks,
Henry;)


Tap to rate this tab
 
# A B C D E F G H I J K L M N O P Q R S T U V W X Y Z