Song name
# A B C D E F G H I J K L M N O P Q R S T U V W X Y Z

Coldplay - Every Teardrop Is A Waterfall tab

Tabbed by: coloradoaves23
Email: thisisme19@live.com

Tuning: Standard (EADGBe)

Intro
e|--------5--5--4---4---4--------7--7--5---5---5----------------------------|
B|--------7--7--7---7---7--x2----5--5--5---5---5----------------------------|
G|--------9--9--9---9---9--------9--9--9---9---9----------------------------|
D|--------------------------------------------------------------------------|
A|--------------------------------------------------------------------------|
E|--------------------------------------------------------------------------|

Solo
e|--------17p12-12-----12-12h14p12----17p12-12--12-12h14p12-14~-------------|
B|-----------------14~-----------14~-----------14----------14---------------|
G|--------------------------------------------------------------------------|
D|--------------------------------------------------------------------------|
A|--------------------------------------------------------------------------|
E|--------------------------------------------------------------------------|

Key
p = Pulloff
h = Hammeron
~ = Vibrato
Tap to rate this tab
 
# A B C D E F G H I J K L M N O P Q R S T U V W X Y Z