Song name
# A B C D E F G H I J K L M N O P Q R S T U V W X Y Z

Coldplay - Every Teardrop Is A Waterfall tab

Intro

e|--------------------------------------------------|
B|--------------------------------------------------|
G|----x-x--x-x-------4-4--2-2-----------------------|
D|----7-7--5-5(2x)--x-x--x-x(2x)------------------|  2x
A|----5-5--5-5-------4-4--4-4-----------------------|
E|----x-x--x-x--------------------------------------|


Verse 

e|--------------------------------------------------|
B|--------------------------------------------------|
G|----x-x--x-x-------4-4--2-2-----------------------|
D|----7-7--5-5(2x)--x-x--x-x(2x)------------------|  2x
A|----5-5--5-5-------4-4--4-4-----------------------|
E|----x-x--x-x--------------------------------------|


e|--------------------------------------------------------------|
B|--------------------------------------------------------------|
G|----x-x--x-x-------4-4--2-2--------2-2--1-1-------x-x--x-x-x--|
D|----7-7--5-5(2x)--x-x--x-x-(2x)---4-4--4-4-(2x)--7-7--5-5-7--|  
A|----5-5--5-5-------4-4--4-4--------4-4--4-4-------5-5-5-5-5--|
E|----x-x--x-x-----------------------x-x--x-x-------x-x--x-x-x--|


Chorus

e|-------------------------------------------------------------|
B|-------------------------------------------------------------|
G|----x-x--x-x-------4-4--2-2--------2-2--1-1-------x-x--x-x---|
D|----7-7--5-5(2x)--x-x--x-x-(2x)---4-4--4-4-(2x)--7-7--5-5---|  
A|----5-5--5-5-------4-4--4-4--------4-4--4-4-------5-5-5-5---|
E|----x-x--x-x-----------------------x-x--x-x-------x-x--x-x---|
Tap to rate this tab
 
# A B C D E F G H I J K L M N O P Q R S T U V W X Y Z