Song name
# A B C D E F G H I J K L M N O P Q R S T U V W X Y Z

Coldplay - Every Teardrop Is A Waterfall tab

#----------------------------------PLEASE NOTE--------------------------------#
#This file is the author's own work and represents their interpretation of the#
#song. You may only use this file for private study, scholarship, or research.#
#-----------------------------------------------------------------------------#
#-- File created with Instab - http://www.pconline.com/~smcarey/instab.html --#
#-----------------------------------------------------------------------------#

Author/Artist: Coldplay
Title: Every Teardrop Is A Waterfall
p pull off

Capo 5th Fret

------|---------------|--|---------------|--|---------------------------------
------|-4-5--5--4--4--|--|-5-7--7--5--5--|--|---------------------------------
------|-2-4--4--2--2--|2x|-4-4--4--4--4--|2x|---------------------------------
------|-2-2--2--2--2--|--|-2-2--2--2--2--|--|---------------------------------
------|---------------|--|---------------|--|---------------------------------
------|---------------|--|---------------|--|---------------------------------
      Intro/Verse                                                             

------|-0--0--0---0--0-0-0-|--|-0--0--0---0--0-0-0-|--|-----------------------
------|-0--0--0---0--0-0-0-|--|-0--0--0---0--0-0-0-|--|-----------------------
------|-4--4--2---2--2-2-2-|2x|-2--2--1---1--1-1-1-|2x|-----------------------
------|-2--2--2---2--2-2-2-|--|-2--2--2---2--2-2-2-|--|-----------------------
------|-0--0--0---0--0-0-0-|--|-2--2--2---2--2-2-2-|--|-----------------------
------|-0--0--0---0--0-0-0-|--|-0--0--0---0--0-0-0-|--|-----------------------
      Verse Pt.2                                                              

------|-0--0--0---0--0-0-0-|--|-0--0--0--0----0--0--0-0-0-|-------------------
------|-7--7--5---5--5-5-5-|--|-0--0--0--0----0--0--0-0-0-|-------------------
------|-4--4--4---4--4-4-4-|2x|-1--1--1--1----1--1--1-1-1-|-------------------
------|-2--2--2---2--2-2-2-|--|-2--2--2--4----2--2--2-2-2-|-------------------
------|-2--2--2---2--2-2-2-|--|-2--2--2--2----2--2--2-2-2-|-------------------
------|-0--0--0---0--0-0-0-|--|-0--0--0--0----0--0--0-0-0-|-------------------
      Verse Out                                                               

------|-0--0--0---0--0-0-0-0--0--0---0--0--0-|--|-----------------------------
------|-0--0--0---0--0-0-0-0--0--0---0--0--0-|--|-----------------------------
------|-4--4--1---1--1-1-1-4--4--1---1--4--1-|--|-----------------------------
------|-2--2--2---2--2-2-2-2--2--2---2--2--2-|--|-----------------------------
------|-0--0--2---2--2-2-2-0--0--2---2--2--2-|--|-----------------------------
------|-0--0--0---0--0-0-0-0--0--0---0--0--0-|--|-----------------------------
      Bridge/Chorus                                                           

------|-7--7--4---4-7p4-4-7--7--4-7p4-4-7-9-|---------------------------------
------|-------------------------------------|---------------------------------
------|-------------------------------------|---------------------------------
------|-------------------------------------|---------------------------------
------|-------------------------------------|---------------------------------
------|-------------------------------------|---------------------------------
      G2 Bridge (W/Out Capo add 5)                             

------|-7--7--5---5--5-5-5-|--|-5--5--4--4--4-4-4-|--|------------------------
------|-5--5--5---5--5-5-5-|--|-5--5--5--5--5-5-5-|--|------------------------
------|-4--4--4---4--4-4-4-|2x|-4--4--4--4--4-4-4-|2x|------------------------
------|-2--2--2---2--2-2-2-|--|-2--2--2--2--2-2-2-|--|------------------------
------|-0--0--2---2--2-2-2-|--|-0--0--2--2--2-2-2-|--|------------------------
------|-0--0--0---0--0-0-0-|--|-0--0--0--0--0-0-0-|--|------------------------
      Interlude                                                               

------|-0--0--0---0--0-0-0-|--|-0--0--0---0--0-0-0-|--------------------------
------|-7--7--5---5--5-5-5-|--|-7--7--4---4--4-4-4-|--------------------------
------|-4--4--4---4--4-4-4-|--|-4--4--2---2--2-2-2-|--------------------------
------|-2--2--2---2--2-2-2-|3x|-2--2--2---2--2-2-2-|--------------------------
------|-0--0--0---0--0-0-0-|--|-0--0--0---0--0-0-0-|--------------------------
------|-0--0--0---0--0-0-0-|--|-0--0--0---0--0-0-0-|--------------------------
                                                                              

Tap to rate this tab
# A B C D E F G H I J K L M N O P Q R S T U V W X Y Z