Song name
# A B C D E F G H I J K L M N O P Q R S T U V W X Y Z

Coldplay - In My Place chords

Highlighted       Show chord diagrams
Intro

e  12------------12----------------------------9-------------9---|
B  -----------------------------------  12--------------12-------|
G  -------9------------9-----------------------------------------| X2
D  --------------------------------------------------------------|
A  --------------------------------------------------------------|
E  --------------------------------------------------------------|

e  12------------12--------------------------9------------9------|
B  -------------------------------14----12------------12----10---|
G  -------9------------9-----------------------------------------| X2
D  --------------------------------------------------------------|
A  --------------------------------------------------------------|
E  --------------------------------------------------------------|

Verse I

A     F#m          C#m         E
In my place, in my place, were lines that I couldn't
A             F#m      C#m   E
change, I was lost, oh yeah
A     F#m         C#m           E
I was lost, I was lost, crossed lines I shouldn't have
A              F#m      C#m    E
crossed, I was lost, oh yeah


CHORUS:

D         A           E        D
Yeah, how long must you wait for him?
D         A           E       D
Yeah, how long must you pay for him?
D         A           E        D        E
Yeah, how long must you wait for him, for him

Intro Riff

Verse II

A     F#m         C#m           E
I was scared, I was scared, tired and underprepared
A     F#m        C#m    E
But I wait for you
A     F#m         C#m
If you go, if you go
        E               A
Leaving me here on my own
     F#m        C#m    E
Well I wait for you

CHORUS

Intro Riff
Tap to rate this tab
# A B C D E F G H I J K L M N O P Q R S T U V W X Y Z