Song name
# A B C D E F G H I J K L M N O P Q R S T U V W X Y Z

Coldplay - Major Minus tab

-----------------------------------------------------------------------------
			     MAJOR MINUS - Coldplay
-----------------------------------------------------------------------------
Tabbed by: Steve Dubuque
Email: steven.dubuque@tdbanknorth.com	

Tuning: E A D G B E

acoustic...

e|-------(0)-(0)-(0)--------(0)-(0)-(0)--(0)---(0)--------------------------|
B|--------0---0---0----------0---0---0----0-----0---------------------------|
G|--------0---0---0----------0---0---0----0-----0---------------------------|
D|-9/12--12---9---9---9/12--12---9---9---(0)----7---------------------------|
A|-7/10--10---7---7---7/10--10---7---7---12-----9---------------------------|
E|--------------0------------------0------7-----7---------------------------|


e|-(0)(0)(0)(0)--------(0)(0)(0)(0)-----------------------------------------|
B|--3--3--3--3----------3--3--3--3------------------------------------------|
G|--4--4--4--4-----O----0--2--0--2------------------------------------------|
D|--2--2--2--2-----R----2--2--2--2------------------------------------------|
A|--3--0--3--0----------3--0--3--0------------------------------------------|
E|--------------------------------------------------------------------------|

electric...

e|-------------(0)----------------(0)---------------------------------------|
B|--------------5-5-3h5-3h5-3h5p3--5-5-3h5-3h5-3h5p3------------------------|
G|--------------------------------------------------------------------------|
D|--------------------------------------------------------------------------|
A|--------------------------------------------------------------------------|
E|-0-0-0-0-0-0--------------------------------------------------------------|



e|--------------------------------------------------------------------------|
B|-5/7-7-5h7p5h7-5h7p5--7/12-12-12\-7-7-------------------------------------|
G|--------------------------------------------------------------------------|
D|--------------------------------------------------------------------------|
A|--------------------------------------------------------------------------|
E|--------------------------------------------------------------------------|

slow part...

e|----------14~------------14~----------------------------------------------|
B|----12~-------15~-----12~----15~------------------------------------------|
G|-12~---------------12~----------------------------------------------------|
D|--------------------------------------------------------------------------|
A|--------------------------------------------------------------------------|
E|--------------------------------------------------------------------------|

   Em	   Dsus	     Csus
(022000)  (X00230)  (X32030)


solo...

e|--------------------------------------------------------------------------|
B|---12~--------------------------------------------------------------------|
G|---12~--------------------------------------------------------------------|
D|--(12)~-------------------------------------------------------------------|
A|--------------------------------------------------------------------------|
E|-----0-0-0-0-0-0----------------------------------------------------------|


e|-----------17--------------------17---------15---------14-----------------|
B|--15-14h15----15-14h15--15-14h15----15-14h15---15-14h15---15-14\12--------|
G|--------------------------------------------------------------------------|
D|--------------------------------------------------------------------------|
A|--------------------------------------------------------------------------|
E|--------------------------------------------------------------------------|

e|-----------14----------14-------------------------------------------------|
B|--15-14\12----12\10/12----------------------------------------------------|
G|--------------------------------------------------------------------------|
D|--------------------------------------------------------------------------|
A|--------------------------------------------------------------------------|
E|--------------------------------------------------------------------------|




| /  slide up
| \  slide down
| h  hammer-on
| b  bend
| p  pull-off
| ~  vibrato
| +  harmonic
| x  Mute note

=============================================================================
Tap to rate this tab
 
# A B C D E F G H I J K L M N O P Q R S T U V W X Y Z