Song name
# A B C D E F G H I J K L M N O P Q R S T U V W X Y Z

Coldplay - Every Teardrop Is A Waterfall tab

"Every Teardrop is a Waterfall" By Coldplay

Tabs By Brandon Cabrera

Video of me singing/playing it here:
http://www.youtube.com/watch?v=-VVMWD2e_28

Tuning: D A D E A E

 / = slide
 x = mute

Intro/Verse 1 & 2:(Stop strings as you play)
--0--0--0--0----0--0--0--0----0--0--0--0----0--0--0--0-----|
--0--0--0--0--0-0--0--0--0----0--0--0--0--0-0--0--0--0-----|
--5--5--4--4--4-5--5--4--4--0-7--7--5--5--5-7--7--5--5--5--|
--0--0--0--0--0-0--0--0--0--0-6--6--x--x--x-6--6--x--x--x--|
--5--5--5--5--5-5--5--5--5--4-4--4--4--4--4-4--4--4--4--4--|
--0--0--0--0--0-0--0--0--0--0-0--0--0--0--0-0--0--0--0--0--|

(Loose strum)
--0---0---0---0---0---0---0---0---0--0--0--0--0--0--5--5--|
--0---0---0---0---0---0---0---0---0--0--0--0--0--0--0--0--|
--10--10--10--10--0---0---0---0---5--5/-4--4--0--0--0--0--|
--x---x---0---0---12--12/-11--11/-4--4--4--4--7--7--7--7--|
--9---9---9---9---0---0---0---0---x--x--x--x--x--x--x--x--|
--0---0---0---0---11--11--11--11/-4--4--4--4--7--7--7--7--|

Turnaround:
--0---0--0---0--0--0--0--0--|
--0---0--0---0--0--0--0--0--|
--10/-9--10/-9--7/-9/-7/-9--|
--9/--7--9/--7--x--x--x--x--|
--0---0--0---0--7/-9/-7/-9--|
--0------0------0--0--0--0--|

Chorus:
--0--0---0--0------0--0----0--0---0--0-------0--0---0--0--|
--x--x---x--x------x--x----0--0---0--0-------0--0---0--0--|
--12-12/-10-10-10/-12-12-0-0--0---0--0---0---0--0---0--0--|
--0--0---0--0--0---0--0--0-12-12/-11-11--11/-12-12/-11-11-|
--0--0---0--0--0---0--0--0-0--0---0--0---0---0--0---0--0--|
---------------------------11-11--11-11--11--11-11--11-11-|

--0--0--0--0-----0--0--0--0---0--0--0--0--0--0---|
--0--0--0--0--0--0--0--0--0---0--0--0--0--0--0---|
--5--5/-4--4--4/-5--5/-4--4---x--x--x--x--x--x---|
-/4--4--4--4--4--4--4--4--4/--12-12-12-12-12-12--|
--0--0--0--0--0--0--0--0--0---0--0--0--0--0--0---|
-/4--4--4--4--4--4--4--4--4---0--0--0--0--0--0---|


(Play Turnaround part after chorus)


Bridge:
--0---0---0---0---0---0---0---0----x--|
--0---0---0---0---0---0---0---0----x--|
--0---0---5---5---x---x---5---5----x--|
--6---6---4---4---12--12--4---4----x--|
--7---7---5---5---0---0---5---5----x--|
----------0---0---0---0---0---0----x--|


(Play Turnaround part after bridge)


Outro:(Kick drum solo)
--0---0---0---0---0---0--0---0--|
--12--11--12--11--0---0--0---0--|
--12--12--12--12--10/-9/-10/-9--|
--0---0---0---0---9/--7/-9/--7--| (Abrupt stop on last chord part)
--0---0---0---0---0---0--0---0--|
--0---0---0---0---0---0--0---0--|

Hooray! You've done it! I Hope you all understood it well.
Have fun with it. :)
 - Brandon -

Feel free to ~Subscribe~ to my YouTube Channel. :)
Tap to rate this tab
# A B C D E F G H I J K L M N O P Q R S T U V W X Y Z