Song name
# A B C D E F G H I J K L M N O P Q R S T U V W X Y Z

Coldplay - Everything Is Not Lost tab

-------------------------------------------------------------------------------
	       Everything's not Lost - Coldplay
-------------------------------------------------------------------------------

Tabbed By : stephen kupfer
e-mail: doc.phunk@gmail.com

Tuning: EADG

G|---779--67-7------------|
D|-------7----5~-3535-7-0-|
A|-7~ --------------------|
E|------------------------|

G|--------------------------------------------------------------|
D|------------------------7---------------------------7---------|
A|-7~~---------------9h10---5---7~~--------------9h10---5-------|
E|--------------------------------------------------------------|

G|--------------------------------------------------------------|
D|------------------------7~~-----------------------------------|
A|-7~~---------------9h10-------------------7~~-----------------|
E|--------------------------------------------------------------|

G|--------------------------------------------------------------|
D|--------------------------------------------------------------|
A|--7------6------5------0-----------7------6------5------0-----|
E|--------------------------------------------------------------|

G|--------------------------------------------------------------|
D|--------------------------------------------------------------|
A|--7------6------5------0----0----2----7~~-----------7~~-------|
E|--------------------------------------------------------------|

G|-------------7h9---6h7--7-------------------------------------|
D|----------7-------7----------5-----4h5-5-4h5h7--0-------------|
A|-7------------------------------------------------------------|
E|--------------------------------------------------------------|

G|----------------------------------------------------------------|
D|----------------------------------------------------------------|
A|--7------6------5~~----------------7------6------5~~------------|
E|----------------------------------------------------------------|

G|--------------------------------------------------------------|
D|--------------------------------------------------------------|
A|--7------6------5------0~~-------------------7~~--------------|
E|--------------------------------------------------------------|

      Singing Ah ah yeah...
G|--------------------------------------------------------------|
D|--------------------------------------------------------------|
A|--7~~----------------------------7~~--------------------------|
E|--------------------------------------------------------------|

G|-------------7h9---6h7--7-------------------------------------|
D|----------7-------7----------5-----4h5-5-4h5h7--0-------------|
A|-7------------------------------------------------------------|
E|--------------------------------------------------------------|

    Ooh a common yeah...
G|--------------------------------------------------------------|
D|--------------------------------------------------------------|
A|-7---7---5h7-7---5/9------------------9--9--7h9-9-7h9--9~~----|
E|----------------------7---7---7---7---------------------------|

G|--------------------------------------------------------------|
D|--------------------------------------------------------------|
A|-7---7---5h7-7---5/9------------------9--9--7h9-9-7h9--9~~----|
E|----------------------7---7---7---7---------------------------|

g|--------------------------------------------------------------|
D|--------------------------------------------------------------|
A|-7~~---------------2~~--------------9~~-----------------------|
E|--------------------------------------------------------------|
Repeat once until end
Tap to rate this tab
# A B C D E F G H I J K L M N O P Q R S T U V W X Y Z