Song name
# A B C D E F G H I J K L M N O P Q R S T U V W X Y Z

Coldplay - Wedding Bells chords

Highlighted       Show chord diagrams
These are the chords that Chris plays on the south bank show documentary- wasn't 
sure what to call them so sorry if there's any confusion!
Tune high E down to D.

D---0-    --0----    -0---    -0---   -0---   
D---8-    --7----    -3---    -3---   -3---   
B---0-    --0----    -0---    -2---   -0---   
G---9-    --0----    -0---    -0---   -2---   
A---10-   --10---    -5---    -0---   -3---   
E---0--   --8----    -3---    -2---   -0---   
  
   G        C        G2        D       C2      


D-0---     ---0---     ---0--    ---0---   
D-3---     ---1---     ---3--    ---0---
B-0---     ---0---     ---2--    ---0---
G-0---     ---2---     ---4--    ---0---
A-2---     ---0---     ---0--    ---5---
E-3---     ---3---     ---2--    ---3---
 
 G3          C3          D2         G4

      G                 C                         G2
These wedding bells are ringing up upon that hill
  C                                  G2
I don't wanna swallow such a bitter pill
G           C               G2
You keep moving baby I stay still
D                           C2   G3
I always loved you and I always will

C3           D2     G4  
La la la la, la la la la
C3                         D2           G4
But everything that went before doesn't matter
C3           D2     G4  
La la la la, la la la la

D                           C2   G3
I always loved you and I always will
Tap to rate this tab
 
# A B C D E F G H I J K L M N O P Q R S T U V W X Y Z