Song name
# A B C D E F G H I J K L M N O P Q R S T U V W X Y Z

Coldplay - Charlie Brown tab

Charlie Brown
Coldplay
Mylo Xyloto

Hope you like it!

(/) Slide Up  (\) Slide Down  (h) Hammer On  (p) Pull Off  (b) Bend (r) Release (v) Vibrato

Standard tuning


e|-------6-------6-------6-------6-----6--------6-------6-----|
B|--4/6-----4/6-----3/4-----4/3-----3-----3-3------3-3-----3--|
G|------------------------------------------------------------|
D|------------------------------------------------------------|
A|------------------------------------------------------------|
E|------------------------------------------------------------|

e|-----------------------------------|
B|--------3--------3--------3--------|
G|--3--5-----3--5-----3--5-----5--0--|
D|-----------------------------------|
A|-----------------------------------|
E|-----------------------------------|

e|--------------------------------|
B|--------3--------3--------3-----|
G|--3--5-----3--5-----3--5-----5--|
D|--------------------------------|
A|--------------------------------|
E|--------------------------------|
Tap to rate this tab
 
# A B C D E F G H I J K L M N O P Q R S T U V W X Y Z