Song name
# A B C D E F G H I J K L M N O P Q R S T U V W X Y Z

Coldplay - Princess Of China tab

-------------------------------------------------------------------------------
			     PRINCESS OF CHINA - Coldplay
-------------------------------------------------------------------------------
Tabbed by: Me
Email: ezepeda96@gmail.com

Tuning: Standard - EADGBe

The only thing I can put for the part in the beginning before the main riff is this:
e|---------------------------------------------------------------------------|
B|--555-555-----555-555------5/666-666-5/666-666-----------------------------|
G|---------------------------------------------------------------------------|
D|---------------------------------------------------------------------------|
A|---------------------------------------------------------------------------|
E|---------------------------------------------------------------------------|

e|-5~---3-5-3------------------------------------------3---------------------|
B|------------5~---3-5-3---------------------------3-5-----------------------|
G|-----------------------2-<---U can play this-----------2--<---Play this----|
D|----------------------------------or------------------------------or-------|
A|-----------------------0-<-------this------------------0--<------This------|
E|---------------------------------------------------------------------------|

Intro and Verses (Basically the Whole Song): Am C Dm F

2:47ish - Little thing before the Main Riff (Real Quick)
e|--------12-11--------------------------------------------------------------|
B|-10------------------------------------------------------------------------|
G|---------------------------------------------------------------------------|
D|---------------------------------------------------------------------------|
A|---------------------------------------------------------------------------|
E|---------------------------------------------------------------------------|
Tap to rate this tab
# A B C D E F G H I J K L M N O P Q R S T U V W X Y Z