Song name
# A B C D E F G H I J K L M N O P Q R S T U V W X Y Z

Coldplay - Up With The Birds chords

Highlighted       Show chord diagrams
D                    G           D
The birds they sang, at break of day
Gmaj7                    Em7
"Start again" I hear them say
        A7           A7Sus4  D              G    D
It's so hard to just walk    away

D                    G       D
The birds they sang, all a choir
Gmaj7                     Em7
Start again, a little higher
        A7        A7Sus4   D             G       D
It's a spark in a sea of grey

D          Gmaj7            D             Gmaj7
The sky is blue, dream that lie til it's true
      A7              A7Sus4
Then taking back the punch I threw
   D          Gmaj7          D       Gmaj7
My arms turn wings oh those clumsy things
        A7          A7Sus4      D
Send me up to that wonderful world
     Bm      A7 A7Sus4     D
And then I'm up with the birds




e|-----------------|
B|-/7-/8-/14-/15---|
G|-----------------|
D|-----------------|
A|-----------------|
E|-----------------|

D G D G D G D Dsus2

              D             Bm             D        Bm
Might have to go where they don't know my name
G                                          
Float all over the world just to see her again
      D              Bm       D       Bm
But I won't show or feel any pain
      G 
Even though all my armour might rust in the rain
          Em   D/F# Em       D/F#  Em
A simple plot,    but I know one day
     G           A          D    Bm  D  Bm
Good things are coming our way
          Em   D/F# Em       D/F#  Em
A simple plot,    but I know one day
     G           A          D    Bm  D  Bm
Good things are coming our way
   Em   D/F#  Em D
Oh yeah

e|-----10-----7--------------10-7-----7-----7----------10-----7------------|
B|---7------7-----7-10-7---7--------7-----7---10-7---7------7-----7-10-----|
G|-7------7-----7--------7--------7-----7----------7------7-----7----------|
D|-------------------------------------------------------------------------|
A|-------------------------------------------------------------------------|
E|-------------------------------------------------------------------------|

e|-------10-------7-----7----------------|
B|-7---7----7---7-----7---10-------------|
G|---7--------7-----7--------------------|
D|---------------------------------------|
A|---------------------------------------|
E|---------------------------------------|




 
Tap to rate this tab
 
# A B C D E F G H I J K L M N O P Q R S T U V W X Y Z