Song name
# A B C D E F G H I J K L M N O P Q R S T U V W X Y Z

Coldplay - Paradise tab

#----------------------------------PLEASE NOTE--------------------------------#
#This file is the author's own work and represents their interpretation of the#
#song. You may only use this file for private study, scholarship, or research.#
#-----------------------------------------------------------------------------#
#-- File created with Instab - http://www.pconline.com/~smcarey/instab.html --#
#-----------------------------------------------------------------------------#

Author/Artist: Coldplay
Title: Paradise

Stardard Tuning

------|-x--x--x---x--x--|-----------------------------------------------------|
------|-3--5--6---6--5--|-----------------------------------------------------|
------|-3--5--5---5--5--|-----------------------------------------------------|
------|-5--5--7---7--5--|-----------------------------------------------------|
------|-5--3--8---8--3--|-----------------------------------------------------|
------|-x--x--x---x--x--|-----------------------------------------------------|
       Intro Chords Pt.1

------|-x---x---x---|---------------------------------------------------------|
------|-3---6---5---|---------------------------------------------------------|
------|-3---5---5---|---------------------------------------------------------|
------|-5---7---5---|---------------------------------------------------------|
------|-5---8---3---|---------------------------------------------------------|
------|-x---x---x---|---------------------------------------------------------|
       Intro Chords Pt.2

------|-5-8-10-12-10-8-5--5-3---|---------------------------------------------|
------|-------------------------|---------------------------------------------|
------|-------------------------|---------------------------------------------|
------|-------------------------|---------------------------------------------|
------|-------------------------|---------------------------------------------|
------|-------------------------|---------------------------------------------|
       W/ Intro Pt.2

------|-x---x---x---x---|--|--------------------------------------------------|
------|-3---3---1---1---|--|--------------------------------------------------|
------|-3---2---2---0---|--|--------------------------------------------------|
------|-5---3---3---2---|--|--------------------------------------------------|
------|-5---5---3---3---|--|--------------------------------------------------|
------|-x---x---x---x---|--|--------------------------------------------------|
      Intro/Verse/Chorus Chords

------|-x---x--|-x---x---x---|--|------------------|-----------------------|--|
------|-3---3--|-3---1---1---|--|------------------|-----------------------|--|
------|-3---2--|-3---2---0---|--|------------------|-----------------------|--|
------|-5---3--|-5---3---2---|--|------------------|-----------------------|--|
------|-5---5--|-5---3---3---|--|------------------|-----------------------|--|
------|-x---x--|-x---x---x---|--|------------------|-----------------------|--|
                "In the night.."  Chords             Intro Part 1 interlude

----------|-------------------------------------------------------------------|
----------|-------------------------------------------------------------------|
----------|-15-15-15--15-15-15-15--14-14-14-14--14-14-14-14-14--14-14-14-14---|
----------|-------------------------------------------------------------------|
----------|-------------------------------------------------------------------|
----------|-------------------------------------------------------------------|
           During Outro Chorus

--------------|---------------------------------------------------------------|
--------------|---------------------------------------------------------------|
-12-12-12-12--|---------------------------------------------------------------|
--------------|---------------------------------------------------------------|
--------------|---------------------------------------------------------------|
--------------|---------------------------------------------------------------|
Tap to rate this tab
# A B C D E F G H I J K L M N O P Q R S T U V W X Y Z