Song name
# A B C D E F G H I J K L M N O P Q R S T U V W X Y Z

Coldplay - Up In Flames tab

Up in Flames - Coldplay

Tabbed by Thomas Menzenbach

This is ONLY the part that Jonny plays.
Notice that he is not using a pick(!)

He starts playing at around 2:20

          (e)---------------------------------------|
          B|-------9--------9-----6--5--3p1---------|
          G|----------------------------------------|
          D|--/10-------9---------6--5--3-----------|
          (A)---------------------------------------|
          (E)---------------------------------------|

          (e)---------------------------------------|
          B|-------9--------9-----6--5--1h3---------|
          G|----------------------------------------|
          D|--/10-------9---------6--5--3-----------|
          (A)---------------------------------------|
          (E)---------------------------------------|

          (e)---------------------------------------|
          B|-------9--------9-----6--5--3p1---------|
          G|----------------------------------------|  (same as the first one)
          D|--/10-------9---------6--5--3-----------|
          (A)---------------------------------------|
          (E)---------------------------------------|


and then he just plays some notes along with the other instruments

e|-------18~----------10~--------13~-------------------|
B|-----------------------------------------------------|
G|-----------------------------------------------------|
D|-----------------------------------------------------|
A|-----------------------------------------------------|
E|-----------------------------------------------------|




************************************

| /   slide up
| \   slide down
| h   hammer-on
| p   pull-off
| ~   vibrato
| +   harmonic
| x   Mute note
| b   Bend
| pb  Pre-bend
| br  Bend release
| pbr Pre-bend release
| brb Bend release bend

************************************


Tap to rate this tab
# A B C D E F G H I J K L M N O P Q R S T U V W X Y Z