Song name
# A B C D E F G H I J K L M N O P Q R S T U V W X Y Z

Coldplay - See You Soon tab

See you son-Coldplay- without capo

Intro

E------------------------------------|
A-4-------6---7---2------------------|
D------------------------------------|
G------------------------------------|
B-5---5---7---9---4---4---2h4-----4--|
e-0-0-----0---0---0-0-----------0----|
X3

E-------------------------------------|
A-9--------7-------2------------------|
D-------------------------------------|
G-------------------------------------|
B-10--10---9---9---4---4---2h4-----4--|
e-0-0------0-0-----0-0----------0-----|

verse
E-------------------------------------|
A-4--------6--7---2-------------------|
D-------------------------------------|
G-------------------------------------|
B-5---5---7---9---4---4---2h4----4----|
e-0-0-----0---0---0-0----------0------|
X4

Chorus

E-------------------------------------|
A-----------------7-------2-----------|
D-11--11---6---9----------------------|
G-------------------------------------|
B-----------------9----9--4---4-------|
e-9-9------4---7--0-0-----0-0---------|

E-------------------------------------|
A-----------------7------7------------|
D-11--11---6---9----------------------|
G-------------------------------------|
B-----------------9---9--9---9--------|
e-9-9------4---7--0-0----0-0----------|
X2


E-------------------------------------|
A-7--------7--------7------7----------|
D-------------------------------------|
G-------------------------------------|
B-10--10--10---10---9---9--9--9-------|
e-0--0-----0--0-----0--0---0-0--------|

Ending (oh you lose your trust)

E-------------------------------------|
A-9--------7--------2-----------------|
D-------------------------------------|
G-------------------------------------|
B-10---10--9---9----4---4---2h4---4---|
e-0--0-----0-0------0-0----------0----|
x6

Its not the best version but is easier and you dont need the capo and the tunning
Tap to rate this tab
 
# A B C D E F G H I J K L M N O P Q R S T U V W X Y Z