Song name
# A B C D E F G H I J K L M N O P Q R S T U V W X Y Z

Coldplay - Paradise tab

1st Intro - G5, Bb5, C5, D5 (3x)

Violin

E|-------0---------------|----------------------------------|
B|---1-3---3-1-----------|----13-15-17-15-13----------------|
G|-2-----------2-2-2p0-0-|-14----------------14-14-14p12-12-|
D|-----------------------|----------------------------------|
A|-----------------------|----------------------------------|
E|-----------------------|----------------------------------|


2nd Intro - G5, Bb, F, C (4x)


Verse

  G5                   Bb            F                  C
  When she was just a  girl_______   She ex-pect-ed the world________
  flew a- way from her reach______   ran a -way  in her sleep________
|----------------------------------|------------------------------------|
|-15---13--15--13------13----------|------------------------------------|
|-------------------14----14-12-14-|-14--12-14---12------12-------------|
|----------------------------------|-----------------15------14-12------|
|----------------------------------|-------------------------------15---|
|----------------------------------|------------------------------------|
(This is the same for both verses and the piano in between them)


1st Bridge

  In the night, the stor-my night she closed her eyes____________
  In the night, the stor-my night a-  way    she flies___________
|----------------------------------------------------------------|
|----13--15-----17--15--13---------------------------------------|
|-14------------------------14----14---14----14---14p12--12----12|
|-----------------------------------------------------------15---|
|----------------------------------------------------------------|
|----------------------------------------------------------------|


Chorus - G, Bb, F, C (4x)


2nd Bridge - G5, Bb5, C5, D5 (3x)
After this do the 1st bridge then the chorus again.


Guitar Solo

|--------------------------|----------------------|
|--------------------------|----------------------|
|--15-15-15-15-15--15--14--|-14-14-14-14-14-14-12-|
|--------------------------|----------------------|
|--------------------------|----------------------|
|--------------------------|----------------------|

Outro - G5, Bb, F, C, G5, Bb, C
If you want, you could also play the meledy to the verse.

Sorry I don't have all of the the meledy! :(
Tap to rate this tab
# A B C D E F G H I J K L M N O P Q R S T U V W X Y Z