Song name
# A B C D E F G H I J K L M N O P Q R S T U V W X Y Z

Coldplay - A Message - Lead tab

Coldplay - A Message


Here are some background guitar parts in the song.
Couldn't find any tabs for them so did them myself.


------------------------------

(1:47)  

**lots of delay. In the recording, this part moves back and forth from
left to right, but lots of delay and reverb can emulate this effect


      C                Am               G                G
e----|8h9-8-----8-----|8h9-8-----8-----|8h9-8-----8-----|8h9-8-----8-----|
B----|------9---------|------9---------|------9---------|------9---------|
G--8-|--------8-----8-|--------8-----8-|--------8-----8-|--------8-----8-|
D----|----------------|----------------|----------------|----------------| (repeat)
A----|----------------|----------------|----------------|----------------|
E----|----------------|----------------|----------------|----------------|



------------------------------

(3:09)

chorus


      Dm               Dm               C                G
e----|--------------9-|9-------------9-|9-------------8-|8---------------|
B----|----------------|----------------|----------------|----------------|
G----|11--------------|--11-11---11----|--10-10---10----|--8-8-----8-----|
D----|----------------|----------------|----------------|----------------| (repeat 7x)
A----|----------------|----------------|----------------|----------------|
E----|----------------|----------------|----------------|----------------|
Tap to rate this tab
 
# A B C D E F G H I J K L M N O P Q R S T U V W X Y Z