Song name
# A B C D E F G H I J K L M N O P Q R S T U V W X Y Z

Coldplay - God Put A Smile Upon Your Face tab

My first Tab :D

God Put A Smile Upon Your Face - Coldplay

Intro Acoustic guitar

E---------------------------------------------------------------------|
B---------------------------------------------------------------------|
G------------6-----6------------6-----6--------6-----6-------6--------|
D------------6-----6------------6-----6--------5-----5-------5--------|
A---------4-----4------------7-----7--------6------6------6------6----|
E---------------------------------------------------------------------|


E---------------------------------------------------------------------|
B---------------------------------------------------------------------|
G-------6-------------------------------------------------------------|
D-------4-------------------------------------------------------------| 2x
A----5----------------------------------------------------------------|
E---------------------------------------------------------------------|


Riff Electric guitar

E---------------------------------------------------------------------|
B--------9--7-----7---------------5-----0-----------------------------|
G--------------8-----8------7-----------------------------------------|
D-----------------------9---------------------------------------------|2x
A---------------------------------------------------------------------|
E---------------------------------------------------------------------|


Verse

E---------------------------------------------------------------------|
B---------------------------------------------------------------------|
G------------6-----6------------6-----6--------6-----6-------6--------|
D------------6-----6------------6-----6--------5-----5-------5--------|
A---------4-----4------------7-----7--------6------6------6------6----|
E---------------------------------------------------------------------|


E---------------------------------------------------------------------|
B---------------------------------------------------------------------|
G-------6-------------------------------------------------------------|
D-------4-------------------------------------------------------------|
A----5----------------------------------------------------------------|
E---------------------------------------------------------------------|


Chorus

C                           G     A

Now when you work it out, I'm worse than you.
C                           G     A

Yeah, when you work it out, I wanted to.
C                          G       A

Now when we work out where to draw the line 
C             G      A

Your guess is as good as mine.


Riff Electric guitar

E---------------------------------------------------------------------|
B--------9--7-----7---------------5-----0-----------------------------|
G--------------8-----8------7-----------------------------------------|
D-----------------------9---------------------------------------------|2x
A---------------------------------------------------------------------|
E---------------------------------------------------------------------|


Verse

E---------------------------------------------------------------------|
B---------------------------------------------------------------------|
G------------6-----6------------6-----6--------6-----6-------6--------|
D------------6-----6------------6-----6--------5-----5-------5--------|
A---------4-----4------------7-----7--------6------6------6------6----|
E---------------------------------------------------------------------|


E---------------------------------------------------------------------|
B---------------------------------------------------------------------|
G-------6-------------------------------------------------------------|
D-------4-------------------------------------------------------------|
A----5----------------------------------------------------------------|
E---------------------------------------------------------------------|


Riff Electric Guitar

E---------------------------------------------------------------------|
B---------------------------------------------------------------------|
G------7-7-7-7-7-7-7-7-7-7-7-7-7-7-7-7-7-7-7-7-7-7-9-10-9-7-----------|
D---------------------------------------------------------------------|
A---------------------------------------------------------------------|
E---------------------------------------------------------------------|


Chorus

C                           G     A

Now when you work it out, I'm worse than you.
C                           G     A

Yeah, when you work it out, I wanted to.
C                          G       A

Now when we work out where to draw the line 
C             G      A

Your guess is as good as mine.



Verse (During "As good as mine"

E---------------------------------------------------------------------|
B---------------------------------------------------------------------|
G------------6-----6------------6-----6--------6-----6-------6--------|
D------------6-----6------------6-----6--------5-----5-------5--------|
A---------4-----4------------7-----7--------6------6------6------6----|
E---------------------------------------------------------------------|


E---------------------------------------------------------------------|
B---------------------------------------------------------------------|
G-------6-------------------------------------------------------------|
D-------4-------------------------------------------------------------|
A----5----------------------------------------------------------------|2x
E---------------------------------------------------------------------|



As good as mine    (Repeat)



Riff Electric Guitar (During "As good as mine"

E---------------------------------------------------------------------|
B---------------------------------------------------------------------|
G--7-7-7-7-7-7-7-7-7-7-7-7-7-7-7-7-7-7-7-7-7-7-7-7-9-10-9-7-----------|
D---------------------------------------------------------------------|
A---------------------------------------------------------------------|
E---------------------------------------------------------------------|



                C     G      A
It's as good as miiiiiiiine


                C     G      A
It's as good as miiiiiiiine


                C     G      A
It's as good as miiiiiiiine


                C     G      A
It's as good as miiiiiiiine


Verse

E---------------------------------------------------------------------|
B---------------------------------------------------------------------|
G------------6-----6------------6-----6--------6-----6-------6--------|
D------------6-----6------------6-----6--------5-----5-------5--------|
A---------4-----4------------7-----7--------6------6------6------6----|
E---------------------------------------------------------------------|


E---------------------------------------------------------------------|
B---------------------------------------------------------------------|
G-------6-------------------------------------------------------------|
D-------4-------------------------------------------------------------|
A----5----------------------------------------------------------------|
E---------------------------------------------------------------------|
Tap to rate this tab
# A B C D E F G H I J K L M N O P Q R S T U V W X Y Z