Song name
# A B C D E F G H I J K L M N O P Q R S T U V W X Y Z

Coldplay - Yellow Acoustic tab

-------------------------------------------------------------------------------
                             Yellow (Acoustic) - Coldplay
-------------------------------------------------------------------------------
Tabbed by: Freddie Macauley
E-mail: fmacauley2@gmail.com

Tuning: Standard

I haven't seen a tab, where the lead part of this song can be played with a capo on 2. 
So I thought I'd quickly tab this out so that using the chords (with the capo on 2) you 
could play the lead the whole song solo.
This isn't how the original is played it's an adaptation to allow the whole thing to be 
played acoustic.

Intro:

e|---------------------------------------------|
B|---------------------------------------------|
G|-11-11-11-11--11-11-11-11--11-9-9-9--9-9-9-9-|
D|---------------------------------------------|
A|---------------------------------------------|
E|---------------------------------------------|

e|---------------------------------------------|
B|-11-11-11-11--11-11-11-11--11-9-9-9--9-9-9-9-|
G|---------------------------------------------|
D|---------------------------------------------|
A|---------------------------------------------|
E|---------------------------------------------|

e|---------------------------------------------|
B|---------------------------------------------|
G|---------------------------------------------|
D|-11-11-11-11--11-11-11-11--11-9-9-9--9-9-9-9-|
A|---------------------------------------------|
E|---------------------------------------------|

e|---------------------------------------------|
B|---------------------------------------------|
G|-11-11-11-11--11-11-11-11--11-9-9-9--9-9-9-9-|
D|---------------------------------------------|
A|---------------------------------------------|
E|---------------------------------------------|

Chorus:

e|----------------------------------------------------|
B|-12-12-12-12--12-12-12-12--12-12-12-12--12-10-10-10-|
G|----------------------------------------------------|
D|----------------------------------------------------|
A|----------------------------------------------------|
E|----------------------------------------------------|

The chorus wouldn't sound very good without the chords in the background, so it's 
probably better to leave it out.
Tap to rate this tab
 
# A B C D E F G H I J K L M N O P Q R S T U V W X Y Z